  0
SECTION
  2
HEADER
  9
$ACADVER
  1
AC1015
  9
$ACADMAINTVER
 70
    13
  9
$DWGCODEPAGE
  3
ANSI_1252
  9
$INSBASE
 10
0.0
 20
0.0
 30
0.0
  9
$EXTMIN
 10
3.6475
 20
2.865658850089324
 30
0.0
  9
$EXTMAX
 10
14.9025
 20
25.67552708007145
 30
0.0
  9
$LIMMIN
 10
0.0
 20
0.0
  9
$LIMMAX
 10
0.8506666666666665
 20
1.100666666666666
  9
$ORTHOMODE
 70
     0
  9
$REGENMODE
 70
     1
  9
$FILLMODE
 70
     1
  9
$QTEXTMODE
 70
     0
  9
$MIRRTEXT
 70
     1
  9
$LTSCALE
 40
1.0
  9
$ATTMODE
 70
     1
  9
$TEXTSIZE
 40
0.4
  9
$TRACEWID
 40
0.05
  9
$TEXTSTYLE
  7
Standard
  9
$CLAYER
  8
0
  9
$CELTYPE
  6
ByLayer
  9
$CECOLOR
 62
     7
  9
$CELTSCALE
 40
1.0
  9
$DISPSILH
 70
     0
  9
$DIMSCALE
 40
1.0
  9
$DIMASZ
 40
0.18
  9
$DIMEXO
 40
0.0625
  9
$DIMDLI
 40
0.38
  9
$DIMRND
 40
0.0
  9
$DIMDLE
 40
0.0
  9
$DIMEXE
 40
0.18
  9
$DIMTP
 40
0.0
  9
$DIMTM
 40
0.0
  9
$DIMTXT
 40
0.0125
  9
$DIMCEN
 40
0.09
  9
$DIMTSZ
 40
0.0
  9
$DIMTOL
 70
     0
  9
$DIMLIM
 70
     0
  9
$DIMTIH
 70
     1
  9
$DIMTOH
 70
     1
  9
$DIMSE1
 70
     0
  9
$DIMSE2
 70
     0
  9
$DIMTAD
 70
     0
  9
$DIMZIN
 70
     0
  9
$DIMBLK
  1

  9
$DIMASO
 70
     1
  9
$DIMSHO
 70
     1
  9
$DIMPOST
  1

  9
$DIMAPOST
  1

  9
$DIMALT
 70
     0
  9
$DIMALTD
 70
     2
  9
$DIMALTF
 40
25.4
  9
$DIMLFAC
 40
1.0
  9
$DIMTOFL
 70
     0
  9
$DIMTVP
 40
0.0
  9
$DIMTIX
 70
     0
  9
$DIMSOXD
 70
     0
  9
$DIMSAH
 70
     0
  9
$DIMBLK1
  1

  9
$DIMBLK2
  1

  9
$DIMSTYLE
  2
Standard
  9
$DIMCLRD
 70
     0
  9
$DIMCLRE
 70
     0
  9
$DIMCLRT
 70
     0
  9
$DIMTFAC
 40
1.0
  9
$DIMGAP
 40
0.09
  9
$DIMJUST
 70
     0
  9
$DIMSD1
 70
     0
  9
$DIMSD2
 70
     0
  9
$DIMTOLJ
 70
     1
  9
$DIMTZIN
 70
     0
  9
$DIMALTZ
 70
     0
  9
$DIMALTTZ
 70
     0
  9
$DIMUPT
 70
     0
  9
$DIMDEC
 70
     2
  9
$DIMTDEC
 70
     4
  9
$DIMALTU
 70
     2
  9
$DIMALTTD
 70
     2
  9
$DIMTXSTY
  7
Standard
  9
$DIMAUNIT
 70
     1
  9
$DIMADEC
 70
     0
  9
$DIMALTRND
 40
0.0
  9
$DIMAZIN
 70
     0
  9
$DIMDSEP
 70
    46
  9
$DIMATFIT
 70
     3
  9
$DIMFRAC
 70
     0
  9
$DIMLDRBLK
  1

  9
$DIMLUNIT
 70
     4
  9
$DIMLWD
 70
    -2
  9
$DIMLWE
 70
    -2
  9
$DIMTMOVE
 70
     0
  9
$LUNITS
 70
     2
  9
$LUPREC
 70
     2
  9
$SKETCHINC
 40
0.1
  9
$FILLETRAD
 40
12.7
  9
$AUNITS
 70
     0
  9
$AUPREC
 70
     2
  9
$MENU
  1
.
  9
$ELEVATION
 40
0.0
  9
$PELEVATION
 40
0.0
  9
$THICKNESS
 40
0.0
  9
$LIMCHECK
 70
     0
  9
$CHAMFERA
 40
6.349999999999999
  9
$CHAMFERB
 40
6.349999999999999
  9
$CHAMFERC
 40
0.0
  9
$CHAMFERD
 40
0.0
  9
$SKPOLY
 70
     0
  9
$TDCREATE
 40
2454194.739048009
  9
$TDUCREATE
 40
2454194.989048009
  9
$TDUPDATE
 40
2454194.739048009
  9
$TDUUPDATE
 40
2454194.989048009
  9
$TDINDWG
 40
0.0000117014
  9
$TDUSRTIMER
 40
0.0000117014
  9
$USRTIMER
 70
     1
  9
$ANGBASE
 50
0.0
  9
$ANGDIR
 70
     0
  9
$PDMODE
 70
     0
  9
$PDSIZE
 40
0.0
  9
$PLINEWID
 40
0.0
  9
$SPLFRAME
 70
     0
  9
$SPLINETYPE
 70
     6
  9
$SPLINESEGS
 70
     8
  9
$HANDSEED
  5
EA
  9
$SURFTAB1
 70
     6
  9
$SURFTAB2
 70
     6
  9
$SURFTYPE
 70
     6
  9
$SURFU
 70
     6
  9
$SURFV
 70
     6
  9
$UCSBASE
  2

  9
$UCSNAME
  2

  9
$UCSORG
 10
0.0
 20
0.0
 30
0.0
  9
$UCSXDIR
 10
1.0
 20
0.0
 30
0.0
  9
$UCSYDIR
 10
0.0
 20
1.0
 30
0.0
  9
$UCSORTHOREF
  2

  9
$UCSORTHOVIEW
 70
     0
  9
$UCSORGTOP
 10
0.0
 20
0.0
 30
0.0
  9
$UCSORGBOTTOM
 10
0.0
 20
0.0
 30
0.0
  9
$UCSORGLEFT
 10
0.0
 20
0.0
 30
0.0
  9
$UCSORGRIGHT
 10
0.0
 20
0.0
 30
0.0
  9
$UCSORGFRONT
 10
0.0
 20
0.0
 30
0.0
  9
$UCSORGBACK
 10
0.0
 20
0.0
 30
0.0
  9
$PUCSBASE
  2

  9
$PUCSNAME
  2

  9
$PUCSORG
 10
0.0
 20
0.0
 30
0.0
  9
$PUCSXDIR
 10
1.0
 20
0.0
 30
0.0
  9
$PUCSYDIR
 10
0.0
 20
1.0
 30
0.0
  9
$PUCSORTHOREF
  2

  9
$PUCSORTHOVIEW
 70
     0
  9
$PUCSORGTOP
 10
0.0
 20
0.0
 30
0.0
  9
$PUCSORGBOTTOM
 10
0.0
 20
0.0
 30
0.0
  9
$PUCSORGLEFT
 10
0.0
 20
0.0
 30
0.0
  9
$PUCSORGRIGHT
 10
0.0
 20
0.0
 30
0.0
  9
$PUCSORGFRONT
 10
0.0
 20
0.0
 30
0.0
  9
$PUCSORGBACK
 10
0.0
 20
0.0
 30
0.0
  9
$USERI1
 70
     0
  9
$USERI2
 70
     0
  9
$USERI3
 70
     0
  9
$USERI4
 70
     0
  9
$USERI5
 70
     0
  9
$USERR1
 40
0.0
  9
$USERR2
 40
0.0
  9
$USERR3
 40
0.0
  9
$USERR4
 40
0.0
  9
$USERR5
 40
0.0
  9
$WORLDVIEW
 70
     1
  9
$SHADEDGE
 70
     3
  9
$SHADEDIF
 70
    70
  9
$TILEMODE
 70
     1
  9
$MAXACTVP
 70
    64
  9
$PINSBASE
 10
0.0
 20
0.0
 30
0.0
  9
$PLIMCHECK
 70
     0
  9
$PEXTMIN
 10
1.000000000000000E+20
 20
1.000000000000000E+20
 30
1.000000000000000E+20
  9
$PEXTMAX
 10
-1.000000000000000E+20
 20
-1.000000000000000E+20
 30
-1.000000000000000E+20
  9
$PLIMMIN
 10
0.0
 20
0.0
  9
$PLIMMAX
 10
12.0
 20
9.0
  9
$UNITMODE
 70
     0
  9
$VISRETAIN
 70
     1
  9
$PLINEGEN
 70
     0
  9
$PSLTSCALE
 70
     1
  9
$TREEDEPTH
 70
  3020
  9
$CMLSTYLE
  2
Standard
  9
$CMLJUST
 70
     0
  9
$CMLSCALE
 40
1.0
  9
$PROXYGRAPHICS
 70
     1
  9
$MEASUREMENT
 70
     0
  9
$CELWEIGHT
370
    -1
  9
$ENDCAPS
280
     0
  9
$JOINSTYLE
280
     0
  9
$LWDISPLAY
290
     0
  9
$INSUNITS
 70
     0
  9
$HYPERLINKBASE
  1

  9
$STYLESHEET
  1

  9
$XEDIT
290
     1
  9
$CEPSNTYPE
380
     0
  9
$PSTYLEMODE
290
     1
  9
$FINGERPRINTGUID
  2
{5787EE99-C54C-47E5-937B-267ABB179BFF}
  9
$VERSIONGUID
  2
{5D4F9374-6E6A-4BAE-836A-7EF2ADC3DFDD}
  9
$EXTNAMES
290
     1
  9
$PSVPSCALE
 40
0.0
  9
$OLESTARTUP
290
     0
  0
ENDSEC
  0
SECTION
  2
CLASSES
  0
CLASS
  1
ACDBDICTIONARYWDFLT
  2
AcDbDictionaryWithDefault
  3
AutoCAD 2000
 90
        0
280
     0
281
     0
  0
CLASS
  1
ACDBPLACEHOLDER
  2
AcDbPlaceHolder
  3
AutoCAD 2000
 90
        0
280
     0
281
     0
  0
CLASS
  1
LAYOUT
  2
AcDbLayout
  3
AutoCAD 2000
 90
        0
280
     0
281
     0
  0
CLASS
  1
DICTIONARYVAR
  2
AcDbDictionaryVar
  3
AutoCAD 2000
 90
        0
280
     0
281
     0
  0
ENDSEC
  0
SECTION
  2
TABLES
  0
TABLE
  2
VPORT
  5
8
330
0
100
AcDbSymbolTable
 70
     1
  0
VPORT
  5
13
330
8
100
AcDbSymbolTableRecord
100
AcDbViewportTableRecord
  2
*Active
 70
     0
 10
0.0
 20
0.0
 11
1.0
 21
1.0
 12
7.45125
 22
12.83776354003572
 13
0.0
 23
0.0
 14
1.0
 24
1.0
 15
0.0
 25
0.0
 16
0.0
 26
0.0
 36
1.0
 17
0.0
 27
0.0
 37
0.0
 40
25.67552708007145
 41
0.5804165170017818
 42
50.0
 43
0.0
 44
0.0
 50
0.0
 51
0.0
 71
     0
 72
   100
 73
     1
 74
     1
 75
     0
 76
     0
 77
     0
 78
     0
281
     0
 65
     1
110
0.0
120
0.0
130
0.0
111
1.0
121
0.0
131
0.0
112
0.0
122
1.0
132
0.0
 79
     0
146
0.0
  0
ENDTAB
  0
TABLE
  2
LTYPE
  5
5
330
0
100
AcDbSymbolTable
 70
    40
  0
LTYPE
  5
14
330
5
100
AcDbSymbolTableRecord
100
AcDbLinetypeTableRecord
  2
ByBlock
 70
     0
  3

 72
    65
 73
     0
 40
0.0
  0
LTYPE
  5
15
330
5
100
AcDbSymbolTableRecord
100
AcDbLinetypeTableRecord
  2
ByLayer
 70
     0
  3

 72
    65
 73
     0
 40
0.0
  0
LTYPE
  5
16
330
5
100
AcDbSymbolTableRecord
100
AcDbLinetypeTableRecord
  2
Continuous
 70
     0
  3
Solid line
 72
    65
 73
     0
 40
0.0
  0
LTYPE
  5
28
330
5
100
AcDbSymbolTableRecord
100
AcDbLinetypeTableRecord
  2
HIDDEN
 70
     0
  3
_ _ _ _ _ _ _ _ _ _ _ _ _ _ 
 72
    65
 73
     2
 40
9.524999999999998
 49
6.349999999999999
 74
     0
 49
-3.174999999999999
 74
     0
  0
LTYPE
  5
29
330
5
100
AcDbSymbolTableRecord
100
AcDbLinetypeTableRecord
  2
DASHED
 70
     0
  3
__ __ __ __ __ __ __ __ __ 
 72
    65
 73
     2
 40
19.04999999999999
 49
12.7
 74
     0
 49
-6.349999999999999
 74
     0
  0
LTYPE
  5
2A
330
5
100
AcDbSymbolTableRecord
100
AcDbLinetypeTableRecord
  2
CENTER
 70
     0
  3
____ _ ____ _ ____ _ ____ _ 
 72
    65
 73
     4
 40
50.8
 49
31.75
 74
     0
 49
-6.349999999999999
 74
     0
 49
6.349999999999999
 74
     0
 49
-6.349999999999999
 74
     0
  0
LTYPE
  5
2B
330
5
100
AcDbSymbolTableRecord
100
AcDbLinetypeTableRecord
  2
PHANTOM
 70
     0
  3
_____ _ _ _____ _ _ _____ _ _ 
 72
    65
 73
     6
 40
63.50000000000001
 49
31.75
 74
     0
 49
-6.349999999999999
 74
     0
 49
6.349999999999999
 74
     0
 49
-6.349999999999999
 74
     0
 49
6.349999999999999
 74
     0
 49
-6.349999999999999
 74
     0
  0
LTYPE
  5
2C
330
5
100
AcDbSymbolTableRecord
100
AcDbLinetypeTableRecord
  2
DOT
 70
     0
  3
...........................
 72
    65
 73
     2
 40
6.349999999999999
 49
0.0
 74
     0
 49
-6.349999999999999
 74
     0
  0
LTYPE
  5
2D
330
5
100
AcDbSymbolTableRecord
100
AcDbLinetypeTableRecord
  2
DASHDOT
 70
     0
  3
__ . __ . __ . __ . __ . __ . 
 72
    65
 73
     4
 40
25.4
 49
12.7
 74
     0
 49
-6.349999999999999
 74
     0
 49
0.0
 74
     0
 49
-6.349999999999999
 74
     0
  0
LTYPE
  5
2E
330
5
100
AcDbSymbolTableRecord
100
AcDbLinetypeTableRecord
  2
DIVIDE
 70
     0
  3
__ . . __ . . __ . . __ . . 
 72
    65
 73
     6
 40
31.75
 49
12.7
 74
     0
 49
-6.349999999999999
 74
     0
 49
0.0
 74
     0
 49
-6.349999999999999
 74
     0
 49
0.0
 74
     0
 49
-6.349999999999999
 74
     0
  0
LTYPE
  5
2F
330
5
100
AcDbSymbolTableRecord
100
AcDbLinetypeTableRecord
  2
BORDER
 70
     0
  3
__ __ . __ __ . __ __ . __ __ .
 72
    65
 73
     6
 40
44.44999999999999
 49
12.7
 74
     0
 49
-6.349999999999999
 74
     0
 49
12.7
 74
     0
 49
-6.349999999999999
 74
     0
 49
0.0
 74
     0
 49
-6.349999999999999
 74
     0
  0
LTYPE
  5
30
330
5
100
AcDbSymbolTableRecord
100
AcDbLinetypeTableRecord
  2
BORDER2
 70
     0
  3
Border (.5x) __.__.__.__.__.__.
 72
    65
 73
     6
 40
0.875
 49
0.25
 74
     0
 49
-0.125
 74
     0
 49
0.25
 74
     0
 49
-0.125
 74
     0
 49
0.0
 74
     0
 49
-0.125
 74
     0
  0
LTYPE
  5
31
330
5
100
AcDbSymbolTableRecord
100
AcDbLinetypeTableRecord
  2
BORDERX2
 70
     0
  3
Border (2x) ____  ____  .  ____
 72
    65
 73
     6
 40
3.5
 49
1.0
 74
     0
 49
-0.5
 74
     0
 49
1.0
 74
     0
 49
-0.5
 74
     0
 49
0.0
 74
     0
 49
-0.5
 74
     0
  0
LTYPE
  5
32
330
5
100
AcDbSymbolTableRecord
100
AcDbLinetypeTableRecord
  2
CENTER2
 70
     0
  3
Center (.5x) ___ _ ___ _ ___ _ 
 72
    65
 73
     4
 40
1.125
 49
0.7500000000000001
 74
     0
 49
-0.125
 74
     0
 49
0.125
 74
     0
 49
-0.125
 74
     0
  0
LTYPE
  5
33
330
5
100
AcDbSymbolTableRecord
100
AcDbLinetypeTableRecord
  2
CENTERX2
 70
     0
  3
Center (2x) ________  __  _____
 72
    65
 73
     4
 40
4.0
 49
2.5
 74
     0
 49
-0.5
 74
     0
 49
0.5
 74
     0
 49
-0.5
 74
     0
  0
LTYPE
  5
34
330
5
100
AcDbSymbolTableRecord
100
AcDbLinetypeTableRecord
  2
DASHDOT2
 70
     0
  3
Dash dot (.5x) _._._._._._._._.
 72
    65
 73
     4
 40
0.5
 49
0.25
 74
     0
 49
-0.125
 74
     0
 49
0.0
 74
     0
 49
-0.125
 74
     0
  0
LTYPE
  5
35
330
5
100
AcDbSymbolTableRecord
100
AcDbLinetypeTableRecord
  2
DASHDOTX2
 70
     0
  3
Dash dot (2x) ____  .  ____  . 
 72
    65
 73
     4
 40
2.0
 49
1.0
 74
     0
 49
-0.5
 74
     0
 49
0.0
 74
     0
 49
-0.5
 74
     0
  0
LTYPE
  5
36
330
5
100
AcDbSymbolTableRecord
100
AcDbLinetypeTableRecord
  2
DASHED2
 70
     0
  3
Dashed (.5x) _ _ _ _ _ _ _ _ _ 
 72
    65
 73
     2
 40
0.375
 49
0.25
 74
     0
 49
-0.125
 74
     0
  0
LTYPE
  5
37
330
5
100
AcDbSymbolTableRecord
100
AcDbLinetypeTableRecord
  2
DASHEDX2
 70
     0
  3
Dashed (2x) ____  ____  ____  _
 72
    65
 73
     2
 40
1.5
 49
1.0
 74
     0
 49
-0.5
 74
     0
  0
LTYPE
  5
38
330
5
100
AcDbSymbolTableRecord
100
AcDbLinetypeTableRecord
  2
DIVIDE2
 70
     0
  3
Divide (.5x) __..__..__..__..__
 72
    65
 73
     6
 40
0.625
 49
0.25
 74
     0
 49
-0.125
 74
     0
 49
0.0
 74
     0
 49
-0.125
 74
     0
 49
0.0
 74
     0
 49
-0.125
 74
     0
  0
LTYPE
  5
39
330
5
100
AcDbSymbolTableRecord
100
AcDbLinetypeTableRecord
  2
DIVIDEX2
 70
     0
  3
Divide (2x) ________  .  .  ___
 72
    65
 73
     6
 40
2.5
 49
1.0
 74
     0
 49
-0.5
 74
     0
 49
0.0
 74
     0
 49
-0.5
 74
     0
 49
0.0
 74
     0
 49
-0.5
 74
     0
  0
LTYPE
  5
3A
330
5
100
AcDbSymbolTableRecord
100
AcDbLinetypeTableRecord
  2
DOT2
 70
     0
  3
Dot (.5x) .....................
 72
    65
 73
     2
 40
0.125
 49
0.0
 74
     0
 49
-0.125
 74
     0
  0
LTYPE
  5
3B
330
5
100
AcDbSymbolTableRecord
100
AcDbLinetypeTableRecord
  2
DOTX2
 70
     0
  3
Dot (2x) .  .  .  .  .  .  .  .
 72
    65
 73
     2
 40
0.5
 49
0.0
 74
     0
 49
-0.5
 74
     0
  0
LTYPE
  5
3C
330
5
100
AcDbSymbolTableRecord
100
AcDbLinetypeTableRecord
  2
HIDDEN2
 70
     0
  3
Hidden (.5x) _ _ _ _ _ _ _ _ _ 
 72
    65
 73
     2
 40
0.1875
 49
0.125
 74
     0
 49
-0.0625
 74
     0
  0
LTYPE
  5
3D
330
5
100
AcDbSymbolTableRecord
100
AcDbLinetypeTableRecord
  2
HIDDENX2
 70
     0
  3
Hidden (2x) ____ ____ ____ ____
 72
    65
 73
     2
 40
0.75
 49
0.5
 74
     0
 49
-0.25
 74
     0
  0
LTYPE
  5
3E
330
5
100
AcDbSymbolTableRecord
100
AcDbLinetypeTableRecord
  2
PHANTOM2
 70
     0
  3
Phantom (.5x) ___ _ _ ___ _ _ _
 72
    65
 73
     6
 40
1.25
 49
0.6250000000000001
 74
     0
 49
-0.125
 74
     0
 49
0.125
 74
     0
 49
-0.125
 74
     0
 49
0.125
 74
     0
 49
-0.125
 74
     0
  0
LTYPE
  5
3F
330
5
100
AcDbSymbolTableRecord
100
AcDbLinetypeTableRecord
  2
PHANTOMX2
 70
     0
  3
Phantom (2x) ____________    __
 72
    65
 73
     6
 40
5.0
 49
2.5
 74
     0
 49
-0.5
 74
     0
 49
0.5
 74
     0
 49
-0.5
 74
     0
 49
0.5
 74
     0
 49
-0.5
 74
     0
  0
LTYPE
  5
40
330
5
100
AcDbSymbolTableRecord
100
AcDbLinetypeTableRecord
  2
DOTS
 70
     0
  3
Dots - - - - - - - - - - - - - 
 72
    65
 73
     2
 40
0.1
 49
0.05
 74
     0
 49
-0.05
 74
     0
  0
LTYPE
  5
41
330
5
100
AcDbSymbolTableRecord
100
AcDbLinetypeTableRecord
  2
ACAD_ISO02W100
 70
     0
  3
__ __ __ __ __ __ __ __ __ __ _
 72
    65
 73
     2
 40
15.0
 49
12.0
 74
     0
 49
-3.0
 74
     0
  0
LTYPE
  5
42
330
5
100
AcDbSymbolTableRecord
100
AcDbLinetypeTableRecord
  2
ACAD_ISO03W100
 70
     0
  3
__    __    __    __    __    _
 72
    65
 73
     2
 40
30.0
 49
12.0
 74
     0
 49
-18.0
 74
     0
  0
LTYPE
  5
43
330
5
100
AcDbSymbolTableRecord
100
AcDbLinetypeTableRecord
  2
ACAD_ISO04W100
 70
     0
  3
____ . ____ . ____ . ____ . ___
 72
    65
 73
     4
 40
30.5
 49
24.0
 74
     0
 49
-3.0
 74
     0
 49
0.5
 74
     0
 49
-3.0
 74
     0
  0
LTYPE
  5
44
330
5
100
AcDbSymbolTableRecord
100
AcDbLinetypeTableRecord
  2
ACAD_ISO05W100
 70
     0
  3
____ .. ____ .. ____ .. ____ ..
 72
    65
 73
     6
 40
34.0
 49
24.0
 74
     0
 49
-3.0
 74
     0
 49
0.5
 74
     0
 49
-3.0
 74
     0
 49
0.5
 74
     0
 49
-3.0
 74
     0
  0
LTYPE
  5
45
330
5
100
AcDbSymbolTableRecord
100
AcDbLinetypeTableRecord
  2
ACAD_ISO06W100
 70
     0
  3
____ ... ____ ... ____ ... ____
 72
    65
 73
     6
 40
34.0
 49
24.0
 74
     0
 49
-3.0
 74
     0
 49
0.5
 74
     0
 49
-3.0
 74
     0
 49
0.5
 74
     0
 49
-3.0
 74
     0
  0
LTYPE
  5
46
330
5
100
AcDbSymbolTableRecord
100
AcDbLinetypeTableRecord
  2
ACAD_ISO07W100
 70
     0
  3
. . . . . . . . . . . . . . . .
 72
    65
 73
     2
 40
3.5
 49
0.5
 74
     0
 49
-3.0
 74
     0
  0
LTYPE
  5
47
330
5
100
AcDbSymbolTableRecord
100
AcDbLinetypeTableRecord
  2
ACAD_ISO08W100
 70
     0
  3
____ __ ____ __ ____ __ ____ __
 72
    65
 73
     4
 40
36.0
 49
24.0
 74
     0
 49
-3.0
 74
     0
 49
6.0
 74
     0
 49
-3.0
 74
     0
  0
LTYPE
  5
48
330
5
100
AcDbSymbolTableRecord
100
AcDbLinetypeTableRecord
  2
ACAD_ISO09W100
 70
     0
  3
____ __ __ ____ __ __ ____ __ _
 72
    65
 73
     6
 40
45.0
 49
24.0
 74
     0
 49
-3.0
 74
     0
 49
6.0
 74
     0
 49
-3.0
 74
     0
 49
6.0
 74
     0
 49
-3.0
 74
     0
  0
LTYPE
  5
49
330
5
100
AcDbSymbolTableRecord
100
AcDbLinetypeTableRecord
  2
ACAD_ISO10W100
 70
     0
  3
__ . __ . __ . __ . __ . __ . _
 72
    65
 73
     4
 40
18.5
 49
12.0
 74
     0
 49
-3.0
 74
     0
 49
0.5
 74
     0
 49
-3.0
 74
     0
  0
LTYPE
  5
4A
330
5
100
AcDbSymbolTableRecord
100
AcDbLinetypeTableRecord
  2
ACAD_ISO11W100
 70
     0
  3
__ __ . __ __ . __ __ . __ __ .
 72
    65
 73
     6
 40
33.5
 49
12.0
 74
     0
 49
-3.0
 74
     0
 49
12.0
 74
     0
 49
-3.0
 74
     0
 49
0.5
 74
     0
 49
-3.0
 74
     0
  0
LTYPE
  5
4B
330
5
100
AcDbSymbolTableRecord
100
AcDbLinetypeTableRecord
  2
ACAD_ISO12W100
 70
     0
  3
__ . . __ . . __ . . __ . . __ 
 72
    65
 73
     6
 40
22.0
 49
12.0
 74
     0
 49
-3.0
 74
     0
 49
0.5
 74
     0
 49
-3.0
 74
     0
 49
0.5
 74
     0
 49
-3.0
 74
     0
  0
LTYPE
  5
4C
330
5
100
AcDbSymbolTableRecord
100
AcDbLinetypeTableRecord
  2
ACAD_ISO13W100
 70
     0
  3
__ __ . . __ __ . . __ __ . . _
 72
    65
 73
     6
 40
33.5
 49
12.0
 74
     0
 49
-3.0
 74
     0
 49
12.0
 74
     0
 49
-3.0
 74
     0
 49
0.5
 74
     0
 49
-3.0
 74
     0
  0
LTYPE
  5
4D
330
5
100
AcDbSymbolTableRecord
100
AcDbLinetypeTableRecord
  2
ACAD_ISO14W100
 70
     0
  3
__ . . . __ . . . __ . . . __ .
 72
    65
 73
     6
 40
22.0
 49
12.0
 74
     0
 49
-3.0
 74
     0
 49
0.5
 74
     0
 49
-3.0
 74
     0
 49
0.5
 74
     0
 49
-3.0
 74
     0
  0
LTYPE
  5
4E
330
5
100
AcDbSymbolTableRecord
100
AcDbLinetypeTableRecord
  2
ACAD_ISO15W100
 70
     0
  3
__ __ . . . __ __ . . . __ __ .
 72
    65
 73
     6
 40
33.5
 49
12.0
 74
     0
 49
-3.0
 74
     0
 49
12.0
 74
     0
 49
-3.0
 74
     0
 49
0.5
 74
     0
 49
-3.0
 74
     0
  0
ENDTAB
  0
TABLE
  2
LAYER
  5
2
330
0
100
AcDbSymbolTable
 70
     3
  0
LAYER
  5
10
330
2
100
AcDbSymbolTableRecord
100
AcDbLayerTableRecord
  2
0
 70
     0
 62
     7
  6
Continuous
370
    -3
390
F
  0
LAYER
  5
4F
330
2
100
AcDbSymbolTableRecord
100
AcDbLayerTableRecord
  2
ANNOTATION
 70
     4
 62
     7
  6
Continuous
370
    -3
390
F
  0
LAYER
  5
50
330
2
100
AcDbSymbolTableRecord
100
AcDbLayerTableRecord
  2
LAYOUT
 70
     0
 62
     7
  6
Continuous
370
    -3
390
F
  0
ENDTAB
  0
TABLE
  2
STYLE
  5
3
330
0
100
AcDbSymbolTable
 70
     6
  0
STYLE
  5
11
330
3
100
AcDbSymbolTableRecord
100
AcDbTextStyleTableRecord
  2
Standard
 70
     0
 40
0.0
 41
1.0
 50
0.0
 71
     0
 42
0.4
  3
txt
  4

  0
STYLE
  5
51
330
3
100
AcDbSymbolTableRecord
100
AcDbTextStyleTableRecord
  2
ITALIC
 70
     0
 40
0.0
 41
1.0
 50
0.0
 71
     0
 42
0.4
  3
ITALIC
  4

  0
STYLE
  5
52
330
3
100
AcDbSymbolTableRecord
100
AcDbTextStyleTableRecord
  2
SIMPLEX
 70
     0
 40
0.0
 41
1.0
 50
0.0
 71
     0
 42
0.4
  3
SIMPLEX
  4

  0
STYLE
  5
53
330
3
100
AcDbSymbolTableRecord
100
AcDbTextStyleTableRecord
  2
COMPLEX
 70
     0
 40
0.0
 41
1.0
 50
0.0
 71
     0
 42
0.4
  3
COMPLEX
  4

  0
STYLE
  5
59
330
3
100
AcDbSymbolTableRecord
100
AcDbTextStyleTableRecord
  2
ARIAL
 70
     0
 40
0.0
 41
1.0
 50
0.0
 71
     0
 42
0.4
  3
ARIAL.TTF
  4

1001
ACAD
1000
Arial
1071
        0
  0
STYLE
  5
7B
330
3
100
AcDbSymbolTableRecord
100
AcDbTextStyleTableRecord
  2
ARIALB
 70
     0
 40
0.0
 41
1.0
 50
0.0
 71
     0
 42
0.4
  3
ARIALBD.TTF
  4

1001
ACAD
1000
Arial
1071
 33554432
  0
ENDTAB
  0
TABLE
  2
VIEW
  5
6
330
0
100
AcDbSymbolTable
 70
     0
  0
ENDTAB
  0
TABLE
  2
UCS
  5
7
330
0
100
AcDbSymbolTable
 70
     0
  0
ENDTAB
  0
TABLE
  2
APPID
  5
9
330
0
100
AcDbSymbolTable
 70
     1
  0
APPID
  5
12
330
9
100
AcDbSymbolTableRecord
100
AcDbRegAppTableRecord
  2
ACAD
 70
     0
  0
ENDTAB
  0
TABLE
  2
DIMSTYLE
  5
A
330
0
100
AcDbSymbolTable
 70
     1
100
AcDbDimStyleTable
 71
     0
  0
DIMSTYLE
105
27
330
A
100
AcDbSymbolTableRecord
100
AcDbDimStyleTableRecord
  2
Standard
 70
     0
340
11
  0
ENDTAB
  0
TABLE
  2
BLOCK_RECORD
  5
1
330
0
100
AcDbSymbolTable
 70
     2
  0
BLOCK_RECORD
  5
1F
330
1
100
AcDbSymbolTableRecord
100
AcDbBlockTableRecord
  2
*Model_Space
340
22
  0
BLOCK_RECORD
  5
1B
330
1
100
AcDbSymbolTableRecord
100
AcDbBlockTableRecord
  2
*Paper_Space
340
1E
  0
BLOCK_RECORD
  5
23
330
1
100
AcDbSymbolTableRecord
100
AcDbBlockTableRecord
  2
*Paper_Space0
340
26
  0
BLOCK_RECORD
  5
5D
330
1
100
AcDbSymbolTableRecord
100
AcDbBlockTableRecord
  2
LONGARROW
340
0
102
{BLKREFS
331
62
331
63
331
69
331
6A
331
BC
331
BD
331
C2
331
C3
331
C9
331
CA
331
D0
331
D1
331
D7
331
D8
331
E1
331
E4
102
}
  0
ENDTAB
  0
ENDSEC
  0
SECTION
  2
BLOCKS
  0
BLOCK
  5
20
330
1F
100
AcDbEntity
  8
0
100
AcDbBlockBegin
  2
*Model_Space
 70
     0
 10
0.0
 20
0.0
 30
0.0
  3
*Model_Space
  1

  0
ENDBLK
  5
21
330
1F
100
AcDbEntity
  8
0
100
AcDbBlockEnd
  0
BLOCK
  5
1C
330
1B
100
AcDbEntity
 67
     1
  8
0
100
AcDbBlockBegin
  2
*Paper_Space
 70
     0
 10
0.0
 20
0.0
 30
0.0
  3
*Paper_Space
  1

  0
ENDBLK
  5
1D
330
1B
100
AcDbEntity
 67
     1
  8
0
100
AcDbBlockEnd
  0
BLOCK
  5
24
330
23
100
AcDbEntity
  8
0
100
AcDbBlockBegin
  2
*Paper_Space0
 70
     0
 10
0.0
 20
0.0
 30
0.0
  3
*Paper_Space0
  1

  0
ENDBLK
  5
25
330
23
100
AcDbEntity
  8
0
100
AcDbBlockEnd
  0
BLOCK
  5
60
330
5D
100
AcDbEntity
  8
0
 62
     7
100
AcDbBlockBegin
  2
LONGARROW
 70
     0
 10
0.0
 20
0.0
 30
0.0
  3
LONGARROW
  1

  0
LWPOLYLINE
  5
5E
330
5D
100
AcDbEntity
  8
ANNOTATION
  6
Continuous
 62
     0
100
AcDbPolyline
 90
        3
 70
     1
 43
0.0
 10
0.0
 20
0.0
 10
50.8
 20
-6.349999999999999
 10
50.8
 20
6.349999999999999
  0
HATCH
  5
5F
330
5D
100
AcDbEntity
  8
ANNOTATION
  6
Continuous
 62
     0
100
AcDbHatch
 10
0.0
 20
0.0
 30
0.0
210
0.0
220
0.0
230
1.0
  2
SOLID
 70
     1
 71
     1
 91
        1
 92
        1
 93
        3
 72
     1
 10
0.0
 20
0.0
 11
50.8
 21
-6.349999999999999
 72
     1
 10
50.8
 20
-6.349999999999999
 11
50.8
 21
6.349999999999999
 72
     1
 10
50.8
 20
6.349999999999999
 11
0.0
 21
0.0
 97
        1
330
5E
 75
     0
 76
     1
 98
        1
 10
0.0
 20
0.0
  0
ENDBLK
  5
61
330
5D
100
AcDbEntity
  8
0
 62
     7
100
AcDbBlockEnd
  0
ENDSEC
  0
SECTION
  2
ENTITIES
  0
LINE
  5
54
330
1F
100
AcDbEntity
  8
ANNOTATION
  6
Continuous
 62
     7
100
AcDbLine
 10
8.552042029132849
 20
8.600658850089329
 30
0.0
 11
8.552042029132854
 21
6.998866138024824
 31
0.0
  0
LINE
  5
55
330
1F
100
AcDbEntity
  8
ANNOTATION
  6
Continuous
 62
     7
100
AcDbLine
 10
6.852042029132848
 20
8.65065885008933
 30
0.0
 11
6.852042029132848
 21
7.012095304691492
 31
0.0
  0
LINE
  5
56
330
1F
100
AcDbEntity
  8
ANNOTATION
  6
Continuous
 62
     7
100
AcDbLine
 10
11.70204202913285
 20
16.99020144543953
 30
0.0
 11
11.70204202913285
 21
18.65065885008933
 31
0.0
  0
LINE
  5
57
330
1F
100
AcDbEntity
  8
ANNOTATION
  6
Continuous
 62
     7
100
AcDbLine
 10
9.952042029132851
 20
17.00065885008933
 30
0.0
 11
9.952042029132851
 21
18.65065885008933
 31
0.0
  0
LWPOLYLINE
  5
58
330
1F
100
AcDbEntity
  8
ANNOTATION
  6
Continuous
 62
     7
100
AcDbPolyline
 90
        4
 70
     1
 43
0.0
 10
6.0
 20
14.0
 10
12.50204202913284
 20
14.0
 10
12.50204202913284
 20
24.0
 10
6.0
 20
24.0
  0
TEXT
  5
5A
330
1F
100
AcDbEntity
  8
ANNOTATION
  6
Continuous
 62
     7
100
AcDbText
 10
10.22669791942024
 20
19.03948340012873
 30
0.0
 40
0.3175
  1
3.40 mm
  7
ARIAL
 72
     1
 11
11.00122211975538
 21
19.19823340012873
 31
0.0
100
AcDbText
 73
     2
  0
LINE
  5
5B
330
1F
100
AcDbEntity
  8
ANNOTATION
  6
Continuous
 62
     7
100
AcDbLine
 10
12.47202304962143
 20
19.19823340012873
 30
0.0
 11
12.16300843208589
 21
19.19823340012873
 31
0.0
  0
LINE
  5
5C
330
1F
100
AcDbEntity
  8
ANNOTATION
  6
Continuous
 62
     7
100
AcDbLine
 10
9.072023049621426
 20
19.19823340012873
 30
0.0
 11
9.839435807424871
 21
19.19823340012873
 31
0.0
  0
INSERT
  5
62
330
1F
100
AcDbEntity
  8
ANNOTATION
  6
Continuous
 62
     7
100
AcDbBlockReference
  2
LONGARROW
 10
12.47202304962143
 20
19.19823340012873
 30
0.0
 41
0.0125
 42
0.0125
 50
180.0
  0
INSERT
  5
63
330
1F
100
AcDbEntity
  8
ANNOTATION
  6
Continuous
 62
     7
100
AcDbBlockReference
  2
LONGARROW
 10
9.072023049621426
 20
19.19823340012873
 30
0.0
 41
0.0125
 42
0.0125
  0
TEXT
  5
64
330
1F
100
AcDbEntity
  8
ANNOTATION
  6
Continuous
 62
     7
100
AcDbText
 10
4.102751987529054
 20
19.07093155178156
 30
0.0
 40
0.3175
  1
10.00 mm
  7
ARIAL
 72
     1
 11
4.988016666666672
 21
19.22968155178156
 31
0.0
100
AcDbText
 73
     2
  0
LINE
  5
65
330
1F
100
AcDbEntity
  8
ANNOTATION
  6
Continuous
 62
     7
100
AcDbLine
 10
5.720516666666678
 20
13.97968155178155
 30
0.0
 11
4.363016666666685
 21
13.97968155178155
 31
0.0
  0
LINE
  5
66
330
1F
100
AcDbEntity
  8
ANNOTATION
  6
Continuous
 62
     7
100
AcDbLine
 10
5.720516666666669
 20
23.97968155178155
 30
0.0
 11
4.363016666666674
 21
23.97968155178155
 31
0.0
  0
LINE
  5
67
330
1F
100
AcDbEntity
  8
ANNOTATION
  6
Continuous
 62
     7
100
AcDbLine
 10
4.998016666666685
 20
13.97968155178155
 30
0.0
 11
4.99801666666668
 21
18.99155655178156
 31
0.0
  0
LINE
  5
68
330
1F
100
AcDbEntity
  8
ANNOTATION
  6
Continuous
 62
     7
100
AcDbLine
 10
4.998016666666674
 20
23.97968155178155
 30
0.0
 11
4.998016666666679
 21
19.46780655178156
 31
0.0
  0
INSERT
  5
69
330
1F
100
AcDbEntity
  8
ANNOTATION
  6
Continuous
 62
     7
100
AcDbBlockReference
  2
LONGARROW
 10
4.998016666666685
 20
13.97968155178155
 30
0.0
 41
0.0125
 42
0.0125
 50
90.00000000000005
  0
INSERT
  5
6A
330
1F
100
AcDbEntity
  8
ANNOTATION
  6
Continuous
 62
     7
100
AcDbBlockReference
  2
LONGARROW
 10
4.998016666666674
 20
23.97968155178155
 30
0.0
 41
0.0125
 42
0.0125
 50
270.0
  0
LINE
  5
6B
330
1F
100
AcDbEntity
  8
ANNOTATION
  6
Continuous
 62
     7
100
AcDbLine
 10
11.67240839413725
 20
23.33528980929958
 30
0.0
 11
11.67240839413725
 21
21.33528980929959
 31
0.0
  0
LWPOLYLINE
  5
6C
102
{ACAD_REACTORS
330
6D
102
}
330
1F
100
AcDbEntity
  8
LAYOUT
  6
Continuous
 62
     7
100
AcDbPolyline
 90
        4
 70
     1
 43
0.0
 10
11.17240839413725
 20
23.63528980929959
 10
12.17240839413725
 20
23.63528980929959
 10
12.17240839413725
 20
22.63528980929959
 10
11.17240839413725
 20
22.63528980929959
  0
HATCH
  5
6D
330
1F
100
AcDbEntity
  8
LAYOUT
  6
Continuous
 62
     7
100
AcDbHatch
 10
0.0
 20
0.0
 30
0.0
210
0.0
220
0.0
230
1.0
  2
SOLID
 70
     1
 71
     1
 91
        1
 92
        1
 93
        4
 72
     1
 10
11.17240839413725
 20
23.63528980929959
 11
12.17240839413725
 21
23.63528980929959
 72
     1
 10
12.17240839413725
 20
23.63528980929959
 11
12.17240839413725
 21
22.63528980929959
 72
     1
 10
12.17240839413725
 20
22.63528980929959
 11
11.17240839413725
 21
22.63528980929959
 72
     1
 10
11.17240839413725
 20
22.63528980929959
 11
11.17240839413725
 21
23.63528980929959
 97
        1
330
6C
 75
     0
 76
     1
 98
        1
 10
0.0
 20
0.0
  0
LWPOLYLINE
  5
6E
102
{ACAD_REACTORS
330
6F
102
}
330
1F
100
AcDbEntity
  8
LAYOUT
  6
Continuous
 62
     7
100
AcDbPolyline
 90
        4
 70
     1
 43
0.0
 10
11.20242737364867
 20
18.01028980929959
 10
12.20242737364867
 20
18.01028980929959
 10
12.20242737364867
 20
17.01028980929959
 10
11.20242737364867
 20
17.01028980929959
  0
HATCH
  5
6F
330
1F
100
AcDbEntity
  8
LAYOUT
  6
Continuous
 62
     7
100
AcDbHatch
 10
0.0
 20
0.0
 30
0.0
210
0.0
220
0.0
230
1.0
  2
SOLID
 70
     1
 71
     1
 91
        1
 92
        1
 93
        4
 72
     1
 10
11.20242737364867
 20
18.01028980929959
 11
12.20242737364867
 21
18.01028980929959
 72
     1
 10
12.20242737364867
 20
18.01028980929959
 11
12.20242737364867
 21
17.01028980929959
 72
     1
 10
12.20242737364867
 20
17.01028980929959
 11
11.20242737364867
 21
17.01028980929959
 72
     1
 10
11.20242737364867
 20
17.01028980929959
 11
11.20242737364867
 21
18.01028980929959
 97
        1
330
6E
 75
     0
 76
     1
 98
        1
 10
0.0
 20
0.0
  0
LWPOLYLINE
  5
70
102
{ACAD_REACTORS
330
71
102
}
330
1F
100
AcDbEntity
  8
LAYOUT
  6
Continuous
 62
     7
100
AcDbPolyline
 90
        4
 70
     1
 43
0.0
 10
11.33001897951142
 20
15.625
 10
12.33001897951142
 20
15.625
 10
12.33001897951142
 20
14.625
 10
11.33001897951142
 20
14.625
  0
HATCH
  5
71
330
1F
100
AcDbEntity
  8
LAYOUT
  6
Continuous
 62
     7
100
AcDbHatch
 10
0.0
 20
0.0
 30
0.0
210
0.0
220
0.0
230
1.0
  2
SOLID
 70
     1
 71
     1
 91
        1
 92
        1
 93
        4
 72
     1
 10
11.33001897951142
 20
15.625
 11
12.33001897951142
 21
15.625
 72
     1
 10
12.33001897951142
 20
15.625
 11
12.33001897951142
 21
14.625
 72
     1
 10
12.33001897951142
 20
14.625
 11
11.33001897951142
 21
14.625
 72
     1
 10
11.33001897951142
 20
14.625
 11
11.33001897951142
 21
15.625
 97
        1
330
70
 75
     0
 76
     1
 98
        1
 10
0.0
 20
0.0
  0
LWPOLYLINE
  5
72
102
{ACAD_REACTORS
330
73
102
}
330
1F
100
AcDbEntity
  8
LAYOUT
  6
Continuous
 62
     7
100
AcDbPolyline
 90
        4
 70
     1
 43
0.0
 10
11.17240839413725
 20
23.63528980929959
 10
12.17240839413725
 20
23.63528980929959
 10
12.17240839413725
 20
19.51028980929958
 10
11.17240839413725
 20
19.51028980929958
  0
HATCH
  5
73
330
1F
100
AcDbEntity
  8
LAYOUT
  6
Continuous
 62
     7
100
AcDbHatch
 10
0.0
 20
0.0
 30
0.0
210
0.0
220
0.0
230
1.0
  2
SOLID
 70
     1
 71
     1
 91
        1
 92
        1
 93
        4
 72
     1
 10
11.17240839413725
 20
23.63528980929959
 11
12.17240839413725
 21
23.63528980929959
 72
     1
 10
12.17240839413725
 20
23.63528980929959
 11
12.17240839413725
 21
19.51028980929958
 72
     1
 10
12.17240839413725
 20
19.51028980929958
 11
11.17240839413725
 21
19.51028980929958
 72
     1
 10
11.17240839413725
 20
19.51028980929958
 11
11.17240839413725
 21
23.63528980929959
 97
        1
330
72
 75
     0
 76
     1
 98
        1
 10
0.0
 20
0.0
  0
LINE
  5
74
330
1F
100
AcDbEntity
  8
ANNOTATION
  6
Continuous
 62
     7
100
AcDbLine
 10
9.952427373648676
 20
23.33771525926019
 30
0.0
 11
9.952427373648676
 21
21.33771525926018
 31
0.0
  0
LWPOLYLINE
  5
75
102
{ACAD_REACTORS
330
76
102
}
330
1F
100
AcDbEntity
  8
LAYOUT
  6
Continuous
 62
     7
100
AcDbPolyline
 90
        4
 70
     1
 43
0.0
 10
9.452427373648678
 20
23.63528980929959
 10
10.45242737364867
 20
23.63528980929959
 10
10.45242737364867
 20
21.33771525926018
 10
9.452427373648678
 20
21.33771525926018
  0
HATCH
  5
76
330
1F
100
AcDbEntity
  8
LAYOUT
  6
Continuous
 62
     7
100
AcDbHatch
 10
0.0
 20
0.0
 30
0.0
210
0.0
220
0.0
230
1.0
  2
SOLID
 70
     1
 71
     1
 91
        1
 92
        1
 93
        4
 72
     1
 10
9.452427373648678
 20
23.63528980929959
 11
10.45242737364867
 21
23.63528980929959
 72
     1
 10
10.45242737364867
 20
23.63528980929959
 11
10.45242737364867
 21
21.33771525926018
 72
     1
 10
10.45242737364867
 20
21.33771525926018
 11
9.452427373648678
 21
21.33771525926018
 72
     1
 10
9.452427373648678
 20
21.33771525926018
 11
9.452427373648678
 21
23.63528980929959
 97
        1
330
75
 75
     0
 76
     1
 98
        1
 10
0.0
 20
0.0
  0
LWPOLYLINE
  5
77
102
{ACAD_REACTORS
330
78
102
}
330
1F
100
AcDbEntity
  8
LAYOUT
  6
Continuous
 62
     7
100
AcDbPolyline
 90
        4
 70
     1
 43
0.0
 10
11.17240839413725
 20
18.63528980929958
 10
12.22240839413725
 20
18.63528980929958
 10
12.22240839413725
 20
16.99020144543953
 10
11.17240839413725
 20
16.99020144543953
  0
HATCH
  5
78
330
1F
100
AcDbEntity
  8
LAYOUT
  6
Continuous
 62
     7
100
AcDbHatch
 10
0.0
 20
0.0
 30
0.0
210
0.0
220
0.0
230
1.0
  2
SOLID
 70
     1
 71
     1
 91
        1
 92
        1
 93
        4
 72
     1
 10
11.17240839413725
 20
18.63528980929958
 11
12.22240839413725
 21
18.63528980929958
 72
     1
 10
12.22240839413725
 20
18.63528980929958
 11
12.22240839413725
 21
16.99020144543953
 72
     1
 10
12.22240839413725
 20
16.99020144543953
 11
11.17240839413725
 21
16.99020144543953
 72
     1
 10
11.17240839413725
 20
16.99020144543953
 11
11.17240839413725
 21
18.63528980929958
 97
        1
330
77
 75
     0
 76
     1
 98
        1
 10
0.0
 20
0.0
  0
LWPOLYLINE
  5
79
102
{ACAD_REACTORS
330
7A
102
}
330
1F
100
AcDbEntity
  8
LAYOUT
  6
Continuous
 62
     7
100
AcDbPolyline
 90
        4
 70
     1
 43
0.0
 10
10.45242737364867
 20
20.51028980929959
 10
11.17240839413725
 20
20.51028980929959
 10
11.17240839413725
 20
19.51028980929958
 10
10.45242737364867
 20
19.51028980929958
  0
HATCH
  5
7A
330
1F
100
AcDbEntity
  8
LAYOUT
  6
Continuous
 62
     7
100
AcDbHatch
 10
0.0
 20
0.0
 30
0.0
210
0.0
220
0.0
230
1.0
  2
SOLID
 70
     1
 71
     1
 91
        1
 92
        1
 93
        4
 72
     1
 10
10.45242737364867
 20
20.51028980929959
 11
11.17240839413725
 21
20.51028980929959
 72
     1
 10
11.17240839413725
 20
20.51028980929959
 11
11.17240839413725
 21
19.51028980929958
 72
     1
 10
11.17240839413725
 20
19.51028980929958
 11
10.45242737364867
 21
19.51028980929958
 72
     1
 10
10.45242737364867
 20
19.51028980929958
 11
10.45242737364867
 21
20.51028980929959
 97
        1
330
79
 75
     0
 76
     1
 98
        1
 10
0.0
 20
0.0
  0
MTEXT
  5
7C
330
1F
100
AcDbEntity
  8
LAYOUT
  6
Continuous
 62
     7
100
AcDbMText
 10
11.99686563646026
 20
17.27684212214435
 30
0.0
 40
0.4
 41
0.0
 71
     7
 72
     1
  1
\C2;\H12.7;\fArial|b1|i0;S\C7;\H12.7;\fArial|b0|i0;
  7
ARIALB
 11
-0.000000000000001
 21
1.0
 31
0.0
 73
     1
 44
1.0
  0
TEXT
  5
7D
330
1F
100
AcDbEntity
  8
LAYOUT
  6
Continuous
 62
     2
100
AcDbText
 10
11.92442340595758
 20
22.88362848605307
 30
0.0
 40
0.5
  1
G
 50
90.00000000000005
  7
ARIALB
100
AcDbText
  0
LWPOLYLINE
  5
7F
102
{ACAD_REACTORS
330
80
330
7E
102
}
330
1F
100
AcDbEntity
  8
LAYOUT
  6
Continuous
 62
     7
100
AcDbPolyline
 90
        4
 70
     1
 43
0.0
 10
7.999007842846344
 20
15.66020067204604
 10
5.999007842846343
 20
15.66020067204604
 10
5.999007842846346
 20
17.66020067204603
 10
7.999007842846344
 20
17.66020067204603
  0
HATCH
  5
80
102
{ACAD_REACTORS
330
7E
102
}
330
1F
100
AcDbEntity
  8
LAYOUT
  6
Continuous
 62
     7
100
AcDbHatch
 10
0.0
 20
0.0
 30
0.0
210
0.0
220
0.0
230
1.0
  2
SOLID
 70
     1
 71
     1
 91
        1
 92
        1
 93
        4
 72
     1
 10
7.999007842846344
 20
15.66020067204604
 11
5.999007842846343
 21
15.66020067204604
 72
     1
 10
5.999007842846343
 20
15.66020067204604
 11
5.999007842846346
 21
17.66020067204603
 72
     1
 10
5.999007842846346
 20
17.66020067204603
 11
7.999007842846344
 21
17.66020067204603
 72
     1
 10
7.999007842846344
 20
17.66020067204603
 11
7.999007842846344
 21
15.66020067204604
 97
        1
330
7F
 75
     0
 76
     1
 98
        1
 10
0.0
 20
0.0
  0
LWPOLYLINE
  5
81
102
{ACAD_REACTORS
330
82
330
7E
102
}
330
1F
100
AcDbEntity
  8
LAYOUT
  6
Continuous
 62
     7
100
AcDbPolyline
 90
        4
 70
     1
 43
0.0
 10
7.999007842846344
 20
18.91020067204604
 10
5.999007842846346
 20
18.91020067204604
 10
5.999007842846346
 20
20.91020067204603
 10
7.999007842846344
 20
20.91020067204603
  0
HATCH
  5
82
102
{ACAD_REACTORS
330
7E
102
}
330
1F
100
AcDbEntity
  8
LAYOUT
  6
Continuous
 62
     7
100
AcDbHatch
 10
0.0
 20
0.0
 30
0.0
210
0.0
220
0.0
230
1.0
  2
SOLID
 70
     1
 71
     1
 91
        1
 92
        1
 93
        4
 72
     1
 10
7.999007842846344
 20
18.91020067204604
 11
5.999007842846346
 21
18.91020067204604
 72
     1
 10
5.999007842846346
 20
18.91020067204604
 11
5.999007842846346
 21
20.91020067204603
 72
     1
 10
5.999007842846346
 20
20.91020067204603
 11
7.999007842846344
 21
20.91020067204603
 72
     1
 10
7.999007842846344
 20
20.91020067204603
 11
7.999007842846344
 21
18.91020067204604
 97
        1
330
81
 75
     0
 76
     1
 98
        1
 10
0.0
 20
0.0
  0
LWPOLYLINE
  5
83
102
{ACAD_REACTORS
330
84
102
}
330
1F
100
AcDbEntity
  8
LAYOUT
  6
Continuous
 62
     7
100
AcDbPolyline
 90
        4
 70
     1
 43
0.0
 10
6.0
 20
15.65
 10
12.34999999999999
 20
15.65
 10
12.34999999999999
 20
14.0
 10
6.0
 20
14.0
  0
HATCH
  5
84
330
1F
100
AcDbEntity
  8
LAYOUT
  6
Continuous
 62
     7
100
AcDbHatch
 10
0.0
 20
0.0
 30
0.0
210
0.0
220
0.0
230
1.0
  2
SOLID
 70
     1
 71
     1
 91
        1
 92
        1
 93
        4
 72
     1
 10
6.0
 20
15.65
 11
12.34999999999999
 21
15.65
 72
     1
 10
12.34999999999999
 20
15.65
 11
12.34999999999999
 21
14.0
 72
     1
 10
12.34999999999999
 20
14.0
 11
6.0
 21
14.0
 72
     1
 10
6.0
 20
14.0
 11
6.0
 21
15.65
 97
        1
330
83
 75
     0
 76
     1
 98
        1
 10
0.0
 20
0.0
  0
TEXT
  5
85
330
1F
100
AcDbEntity
  8
LAYOUT
  6
Continuous
 62
     2
100
AcDbText
 10
11.57199447616647
 20
14.52866627750368
 30
0.0
 40
0.635
  1
+
  7
ARIALB
100
AcDbText
  0
HATCH
  5
86
330
1F
100
AcDbEntity
  8
LAYOUT
  6
Continuous
 62
     7
100
AcDbHatch
 10
0.0
 20
0.0
 30
0.0
210
0.0
220
0.0
230
1.0
  2
SOLID
 70
     1
 71
     0
 91
        1
 92
        3
 72
     0
 73
     1
 93
        5
 10
9.452427373648678
 20
16.99020144543953
 10
10.45242737364867
 20
16.99020144543953
 10
10.45242737364867
 20
20.51028980929959
 10
9.952427373648676
 20
20.51028980929959
 10
9.452427373648678
 20
20.07027876381708
 97
        0
 75
     0
 76
     1
 98
        1
 10
0.0
 20
0.0
  0
LINE
  5
88
102
{ACAD_REACTORS
330
87
102
}
330
1F
100
AcDbEntity
  8
ANNOTATION
  6
Continuous
 62
     7
100
AcDbLine
 10
9.432958497611501
 20
21.34472529968585
 30
0.0
 11
9.102094698148382
 21
21.01386150022273
 31
0.0
  0
LINE
  5
89
102
{ACAD_REACTORS
330
87
102
}
330
1F
100
AcDbEntity
  8
ANNOTATION
  6
Continuous
 62
     7
100
AcDbLine
 10
9.102042029132851
 20
21.01759921497302
 30
0.0
 11
9.102042029132851
 21
18.65065885008933
 31
0.0
  0
LINE
  5
8A
102
{ACAD_REACTORS
330
87
102
}
330
1F
100
AcDbEntity
  8
ANNOTATION
  6
Continuous
 62
     7
100
AcDbLine
 10
9.102042029132851
 20
18.65065885008933
 30
0.0
 11
12.50204202913285
 21
18.65065885008933
 31
0.0
  0
LINE
  5
8B
102
{ACAD_REACTORS
330
87
102
}
330
1F
100
AcDbEntity
  8
ANNOTATION
  6
Continuous
 62
     7
100
AcDbLine
 10
12.50204202913285
 20
18.65065885008933
 30
0.0
 11
12.50204202913285
 21
21.35065885008933
 31
0.0
  0
LINE
  5
8C
102
{ACAD_REACTORS
330
87
102
}
330
1F
100
AcDbEntity
  8
ANNOTATION
  6
Continuous
 62
     7
100
AcDbLine
 10
12.50204202913285
 20
21.35065885008933
 30
0.0
 11
9.438701603600936
 21
21.35065885008933
 31
0.0
  0
LWPOLYLINE
  5
8D
330
1F
100
AcDbEntity
  8
ANNOTATION
  6
Continuous
 62
     7
100
AcDbPolyline
 90
        5
 70
     0
 43
0.0
 10
12.50204202913285
 20
13.99849489040008
 10
6.001378257587968
 20
13.99849489040009
 10
6.001378257587963
 20
3.998494890400093
 10
12.50204202913284
 20
3.998494890400091
 10
12.50204202913285
 20
13.99849489040008
  0
LINE
  5
8E
330
1F
100
AcDbEntity
  8
ANNOTATION
  6
Continuous
 62
     7
100
AcDbLine
 10
6.845167945691835
 20
11.35227382067517
 30
0.0
 11
6.845167945691835
 21
13.35227382067517
 31
0.0
  0
LWPOLYLINE
  5
8F
102
{ACAD_REACTORS
330
90
102
}
330
1F
100
AcDbEntity
  8
LAYOUT
  6
Continuous
 62
     7
100
AcDbPolyline
 90
        4
 70
     1
 43
0.0
 10
7.345167945691834
 20
11.97727382067517
 10
6.345167945691836
 20
11.97727382067517
 10
6.345167945691836
 20
12.97727382067517
 10
7.345167945691834
 20
12.97727382067517
  0
HATCH
  5
90
330
1F
100
AcDbEntity
  8
LAYOUT
  6
Continuous
 62
     7
100
AcDbHatch
 10
0.0
 20
0.0
 30
0.0
210
0.0
220
0.0
230
1.0
  2
SOLID
 70
     1
 71
     1
 91
        1
 92
        1
 93
        4
 72
     1
 10
7.345167945691834
 20
11.97727382067517
 11
6.345167945691836
 21
11.97727382067517
 72
     1
 10
6.345167945691836
 20
11.97727382067517
 11
6.345167945691836
 21
12.97727382067517
 72
     1
 10
6.345167945691836
 20
12.97727382067517
 11
7.345167945691834
 21
12.97727382067517
 72
     1
 10
7.345167945691834
 20
12.97727382067517
 11
7.345167945691834
 21
11.97727382067517
 97
        1
330
8F
 75
     0
 76
     1
 98
        1
 10
0.0
 20
0.0
  0
LWPOLYLINE
  5
91
102
{ACAD_REACTORS
330
92
102
}
330
1F
100
AcDbEntity
  8
LAYOUT
  6
Continuous
 62
     7
100
AcDbPolyline
 90
        4
 70
     1
 43
0.0
 10
7.384068197123676
 20
4.059856769842737
 10
6.384068197123678
 20
4.059856769842739
 10
6.384068197123678
 20
5.05985676984274
 10
7.384068197123676
 20
5.05985676984274
  0
HATCH
  5
92
330
1F
100
AcDbEntity
  8
LAYOUT
  6
Continuous
 62
     7
100
AcDbHatch
 10
0.0
 20
0.0
 30
0.0
210
0.0
220
0.0
230
1.0
  2
SOLID
 70
     1
 71
     1
 91
        1
 92
        1
 93
        4
 72
     1
 10
7.384068197123676
 20
4.059856769842737
 11
6.384068197123678
 21
4.059856769842739
 72
     1
 10
6.384068197123678
 20
4.059856769842739
 11
6.384068197123678
 21
5.05985676984274
 72
     1
 10
6.384068197123678
 20
5.05985676984274
 11
7.384068197123676
 21
5.05985676984274
 72
     1
 10
7.384068197123676
 20
5.05985676984274
 11
7.384068197123676
 21
4.059856769842737
 97
        1
330
91
 75
     0
 76
     1
 98
        1
 10
0.0
 20
0.0
  0
LWPOLYLINE
  5
93
102
{ACAD_REACTORS
330
94
102
}
330
1F
100
AcDbEntity
  8
LAYOUT
  6
Continuous
 62
     7
100
AcDbPolyline
 90
        4
 70
     1
 43
0.0
 10
7.375186925203252
 20
7.012095304691492
 10
6.375186925203253
 20
7.012095304691492
 10
6.375186925203259
 20
10.47727382067517
 10
7.375186925203257
 20
10.47727382067517
  0
HATCH
  5
94
330
1F
100
AcDbEntity
  8
LAYOUT
  6
Continuous
 62
     7
100
AcDbHatch
 10
0.0
 20
0.0
 30
0.0
210
0.0
220
0.0
230
1.0
  2
SOLID
 70
     1
 71
     1
 91
        1
 92
        1
 93
        4
 72
     1
 10
7.375186925203252
 20
7.012095304691492
 11
6.375186925203253
 21
7.012095304691492
 72
     1
 10
6.375186925203253
 20
7.012095304691492
 11
6.375186925203259
 21
10.47727382067517
 72
     1
 10
6.375186925203259
 20
10.47727382067517
 11
7.375186925203257
 21
10.47727382067517
 72
     1
 10
7.375186925203257
 20
10.47727382067517
 11
7.375186925203252
 21
7.012095304691492
 97
        1
330
93
 75
     0
 76
     1
 98
        1
 10
0.0
 20
0.0
  0
LINE
  5
95
330
1F
100
AcDbEntity
  8
ANNOTATION
  6
Continuous
 62
     7
100
AcDbLine
 10
8.595167945691837
 20
11.37727382067517
 30
0.0
 11
8.595167945691837
 21
13.37727382067517
 31
0.0
  0
LWPOLYLINE
  5
96
102
{ACAD_REACTORS
330
97
102
}
330
1F
100
AcDbEntity
  8
LAYOUT
  6
Continuous
 62
     7
100
AcDbPolyline
 90
        4
 70
     1
 43
0.0
 10
9.09516794569183
 20
6.998866138024825
 10
8.095167945691832
 20
6.998866138024825
 10
8.095167945691839
 20
8.649848370714575
 10
9.09516794569183
 20
8.649848370714575
  0
HATCH
  5
97
330
1F
100
AcDbEntity
  8
LAYOUT
  6
Continuous
 62
     7
100
AcDbHatch
 10
0.0
 20
0.0
 30
0.0
210
0.0
220
0.0
230
1.0
  2
SOLID
 70
     1
 71
     1
 91
        1
 92
        1
 93
        4
 72
     1
 10
9.09516794569183
 20
6.998866138024825
 11
8.095167945691832
 21
6.998866138024825
 72
     1
 10
8.095167945691832
 20
6.998866138024825
 11
8.095167945691839
 21
8.649848370714575
 72
     1
 10
8.095167945691839
 20
8.649848370714575
 11
9.09516794569183
 21
8.649848370714575
 72
     1
 10
9.09516794569183
 20
8.649848370714575
 11
9.09516794569183
 21
6.998866138024825
 97
        1
330
96
 75
     0
 76
     1
 98
        1
 10
0.0
 20
0.0
  0
LWPOLYLINE
  5
98
102
{ACAD_REACTORS
330
99
102
}
330
1F
100
AcDbEntity
  8
LAYOUT
  6
Continuous
 62
     7
100
AcDbPolyline
 90
        4
 70
     1
 43
0.0
 10
7.375186925203257
 20
11.35227382067517
 10
6.325186925203254
 20
11.35227382067517
 10
6.325186925203254
 20
13.50227382067517
 10
7.375186925203257
 20
13.50227382067517
  0
HATCH
  5
99
330
1F
100
AcDbEntity
  8
LAYOUT
  6
Continuous
 62
     7
100
AcDbHatch
 10
0.0
 20
0.0
 30
0.0
210
0.0
220
0.0
230
1.0
  2
SOLID
 70
     1
 71
     1
 91
        1
 92
        1
 93
        4
 72
     1
 10
7.375186925203257
 20
11.35227382067517
 11
6.325186925203254
 21
11.35227382067517
 72
     1
 10
6.325186925203254
 20
11.35227382067517
 11
6.325186925203254
 21
13.50227382067517
 72
     1
 10
6.325186925203254
 20
13.50227382067517
 11
7.375186925203257
 21
13.50227382067517
 72
     1
 10
7.375186925203257
 20
13.50227382067517
 11
7.375186925203257
 21
11.35227382067517
 97
        1
330
98
 75
     0
 76
     1
 98
        1
 10
0.0
 20
0.0
  0
LWPOLYLINE
  5
9A
102
{ACAD_REACTORS
330
9B
102
}
330
1F
100
AcDbEntity
  8
LAYOUT
  6
Continuous
 62
     7
100
AcDbPolyline
 90
        4
 70
     1
 43
0.0
 10
8.095167945691832
 20
9.477273820675176
 10
7.375186925203257
 20
9.477273820675176
 10
7.375186925203257
 20
10.47727382067517
 10
8.095167945691832
 20
10.47727382067517
  0
HATCH
  5
9B
330
1F
100
AcDbEntity
  8
LAYOUT
  6
Continuous
 62
     7
100
AcDbHatch
 10
0.0
 20
0.0
 30
0.0
210
0.0
220
0.0
230
1.0
  2
SOLID
 70
     1
 71
     1
 91
        1
 92
        1
 93
        4
 72
     1
 10
8.095167945691832
 20
9.477273820675176
 11
7.375186925203257
 21
9.477273820675176
 72
     1
 10
7.375186925203257
 20
9.477273820675176
 11
7.375186925203257
 21
10.47727382067517
 72
     1
 10
7.375186925203257
 20
10.47727382067517
 11
8.095167945691832
 21
10.47727382067517
 72
     1
 10
8.095167945691832
 20
10.47727382067517
 11
8.095167945691832
 21
9.477273820675176
 97
        1
330
9A
 75
     0
 76
     1
 98
        1
 10
0.0
 20
0.0
  0
MTEXT
  5
9C
330
1F
100
AcDbEntity
  8
LAYOUT
  6
Continuous
 62
     7
100
AcDbMText
 10
6.550729682880248
 20
12.71072150783041
 30
0.0
 40
0.4
 41
0.0
 71
     7
 72
     1
  1
\C2;\H12.7;\fArial|b1|i0;S\C7;\H12.7;\fArial|b0|i0;
  7
ARIALB
 11
0.0000000000000007
 21
-1.0
 31
0.0
 73
     1
 44
1.0
  0
TEXT
  5
9D
330
1F
100
AcDbEntity
  8
LAYOUT
  6
Continuous
 62
     2
100
AcDbText
 10
6.596713580049595
 20
7.990289310588358
 30
0.0
 40
0.5
  1
G
 50
270.0
  7
ARIALB
100
AcDbText
  0
LWPOLYLINE
  5
9F
102
{ACAD_REACTORS
330
A0
330
9E
102
}
330
1F
100
AcDbEntity
  8
LAYOUT
  6
Continuous
 62
     7
100
AcDbPolyline
 90
        4
 70
     1
 43
0.0
 10
10.50204202913285
 20
10.90065885008932
 10
12.50204202913286
 20
10.90065885008932
 10
12.50204202913285
 20
8.900658850089328
 10
10.50204202913284
 20
8.900658850089328
  0
HATCH
  5
A0
102
{ACAD_REACTORS
330
9E
102
}
330
1F
100
AcDbEntity
  8
LAYOUT
  6
Continuous
 62
     7
100
AcDbHatch
 10
0.0
 20
0.0
 30
0.0
210
0.0
220
0.0
230
1.0
  2
SOLID
 70
     1
 71
     1
 91
        1
 92
        1
 93
        4
 72
     1
 10
10.50204202913285
 20
10.90065885008932
 11
12.50204202913286
 21
10.90065885008932
 72
     1
 10
12.50204202913286
 20
10.90065885008932
 11
12.50204202913285
 21
8.900658850089328
 72
     1
 10
12.50204202913285
 20
8.900658850089328
 11
10.50204202913284
 21
8.900658850089328
 72
     1
 10
10.50204202913284
 20
8.900658850089328
 11
10.50204202913285
 21
10.90065885008932
 97
        1
330
9F
 75
     0
 76
     1
 98
        1
 10
0.0
 20
0.0
  0
LWPOLYLINE
  5
A1
102
{ACAD_REACTORS
330
A2
330
9E
102
}
330
1F
100
AcDbEntity
  8
LAYOUT
  6
Continuous
 62
     7
100
AcDbPolyline
 90
        4
 70
     1
 43
0.0
 10
10.50204202913284
 20
7.650658850089324
 10
12.50204202913285
 20
7.650658850089324
 10
12.50204202913285
 20
5.650658850089328
 10
10.50204202913284
 20
5.650658850089328
  0
HATCH
  5
A2
102
{ACAD_REACTORS
330
9E
102
}
330
1F
100
AcDbEntity
  8
LAYOUT
  6
Continuous
 62
     7
100
AcDbHatch
 10
0.0
 20
0.0
 30
0.0
210
0.0
220
0.0
230
1.0
  2
SOLID
 70
     1
 71
     1
 91
        1
 92
        1
 93
        4
 72
     1
 10
10.50204202913284
 20
7.650658850089324
 11
12.50204202913285
 21
7.650658850089324
 72
     1
 10
12.50204202913285
 20
7.650658850089324
 11
12.50204202913285
 21
5.650658850089328
 72
     1
 10
12.50204202913285
 20
5.650658850089328
 11
10.50204202913284
 21
5.650658850089328
 72
     1
 10
10.50204202913284
 20
5.650658850089328
 11
10.50204202913284
 21
7.650658850089324
 97
        1
330
A1
 75
     0
 76
     1
 98
        1
 10
0.0
 20
0.0
  0
LWPOLYLINE
  5
A3
102
{ACAD_REACTORS
330
A4
102
}
330
1F
100
AcDbEntity
  8
LAYOUT
  6
Continuous
 62
     7
100
AcDbPolyline
 90
        4
 70
     1
 43
0.0
 10
8.302254237059848
 20
8.150446642162352
 10
10.51621921981412
 20
10.36441162491661
 10
11.26433927014349
 20
9.616291574587249
 10
9.050374287389203
 20
7.402326591832975
  0
HATCH
  5
A4
330
1F
100
AcDbEntity
  8
LAYOUT
  6
Continuous
 62
     7
100
AcDbHatch
 10
0.0
 20
0.0
 30
0.0
210
0.0
220
0.0
230
1.0
  2
SOLID
 70
     1
 71
     1
 91
        1
 92
        1
 93
        4
 72
     1
 10
8.302254237059848
 20
8.150446642162352
 11
10.51621921981412
 21
10.36441162491661
 72
     1
 10
10.51621921981412
 20
10.36441162491661
 11
11.26433927014349
 21
9.616291574587249
 72
     1
 10
11.26433927014349
 20
9.616291574587249
 11
9.050374287389203
 21
7.402326591832975
 72
     1
 10
9.050374287389203
 20
7.402326591832975
 11
8.302254237059848
 21
8.150446642162352
 97
        1
330
A3
 75
     0
 76
     1
 98
        1
 10
0.0
 20
0.0
  0
LWPOLYLINE
  5
A5
102
{ACAD_REACTORS
330
A6
102
}
330
1F
100
AcDbEntity
  8
LAYOUT
  6
Continuous
 62
     7
100
AcDbPolyline
 90
        4
 70
     1
 43
0.0
 10
12.50204202913284
 20
3.998494890400091
 10
6.364087176635101
 20
3.998494890400095
 10
6.364087176635099
 20
5.648494890400095
 10
12.50204202913284
 20
5.648494890400092
  0
HATCH
  5
A6
330
1F
100
AcDbEntity
  8
LAYOUT
  6
Continuous
 62
     7
100
AcDbHatch
 10
0.0
 20
0.0
 30
0.0
210
0.0
220
0.0
230
1.0
  2
SOLID
 70
     1
 71
     1
 91
        1
 92
        1
 93
        4
 72
     1
 10
12.50204202913284
 20
3.998494890400091
 11
6.364087176635101
 21
3.998494890400095
 72
     1
 10
6.364087176635101
 20
3.998494890400095
 11
6.364087176635099
 21
5.648494890400095
 72
     1
 10
6.364087176635099
 20
5.648494890400095
 11
12.50204202913284
 21
5.648494890400092
 72
     1
 10
12.50204202913284
 20
5.648494890400092
 11
12.50204202913284
 21
3.998494890400091
 97
        1
330
A5
 75
     0
 76
     1
 98
        1
 10
0.0
 20
0.0
  0
TEXT
  5
A7
330
1F
100
AcDbEntity
  8
LAYOUT
  6
Continuous
 62
     2
100
AcDbText
 10
7.142092700468616
 20
5.15619049233906
 30
0.0
 40
0.635
  1
+
 50
180.0
  7
ARIALB
100
AcDbText
  0
LINE
  5
A9
102
{ACAD_REACTORS
330
A8
102
}
330
1F
100
AcDbEntity
  8
LAYOUT
  6
Continuous
 62
     7
100
AcDbLine
 10
8.595167945691832
 20
9.477273820675176
 30
0.0
 11
9.09516794569183
 21
9.977273820675174
 31
0.0
  0
LINE
  5
AA
102
{ACAD_REACTORS
330
A8
102
}
330
1F
100
AcDbEntity
  8
LAYOUT
  6
Continuous
 62
     7
100
AcDbLine
 10
9.09516794569183
 20
13.47727382067517
 30
0.0
 11
9.09516794569183
 21
9.977273820675174
 31
0.0
  0
LINE
  5
AB
102
{ACAD_REACTORS
330
A8
102
}
330
1F
100
AcDbEntity
  8
LAYOUT
  6
Continuous
 62
     7
100
AcDbLine
 10
8.595167945691832
 20
9.477273820675176
 30
0.0
 11
8.095167945691839
 21
9.477273820675176
 31
0.0
  0
LINE
  5
AC
102
{ACAD_REACTORS
330
A8
102
}
330
1F
100
AcDbEntity
  8
LAYOUT
  6
Continuous
 62
     7
100
AcDbLine
 10
8.095167945691839
 20
9.477273820675176
 30
0.0
 11
8.095167945691839
 21
13.47727382067517
 31
0.0
  0
LINE
  5
AD
102
{ACAD_REACTORS
330
A8
102
}
330
1F
100
AcDbEntity
  8
LAYOUT
  6
Continuous
 62
     7
100
AcDbLine
 10
8.095167945691839
 20
13.47727382067517
 30
0.0
 11
9.09516794569183
 21
13.47727382067517
 31
0.0
  0
HATCH
  5
AE
330
1F
100
AcDbEntity
  8
LAYOUT
  6
Continuous
 62
     7
100
AcDbHatch
 10
0.0
 20
0.0
 30
0.0
210
0.0
220
0.0
230
1.0
  2
SOLID
 70
     1
 71
     0
 91
        1
 92
        3
 72
     0
 73
     1
 93
        5
 10
9.09516794569183
 20
13.47727382067517
 10
8.095167945691839
 20
13.47727382067517
 10
8.095167945691839
 20
9.477273820675176
 10
8.595167945691832
 20
9.477273820675176
 10
9.09516794569183
 20
9.977273820675174
 97
        0
 75
     0
 76
     1
 98
        1
 10
0.0
 20
0.0
  0
LINE
  5
B0
102
{ACAD_REACTORS
330
AF
102
}
330
1F
100
AcDbEntity
  8
ANNOTATION
  6
Continuous
 62
     7
100
AcDbLine
 10
9.077273534954164
 20
8.65042061036401
 30
0.0
 11
9.408137334417283
 21
8.981284409827127
 31
0.0
  0
LINE
  5
B1
102
{ACAD_REACTORS
330
AF
102
}
330
1F
100
AcDbEntity
  8
ANNOTATION
  6
Continuous
 62
     7
100
AcDbLine
 10
9.408190003432814
 20
8.977546695076844
 30
0.0
 11
9.408190003432814
 21
11.34448705996053
 31
0.0
  0
LINE
  5
B2
102
{ACAD_REACTORS
330
AF
102
}
330
1F
100
AcDbEntity
  8
ANNOTATION
  6
Continuous
 62
     7
100
AcDbLine
 10
9.408190003432814
 20
11.34448705996053
 30
0.0
 11
6.008190003432816
 21
11.34448705996053
 31
0.0
  0
LINE
  5
B3
102
{ACAD_REACTORS
330
AF
102
}
330
1F
100
AcDbEntity
  8
ANNOTATION
  6
Continuous
 62
     7
100
AcDbLine
 10
6.008190003432816
 20
11.34448705996053
 30
0.0
 11
6.008190003432816
 21
8.644487059960535
 31
0.0
  0
LINE
  5
B4
102
{ACAD_REACTORS
330
AF
102
}
330
1F
100
AcDbEntity
  8
ANNOTATION
  6
Continuous
 62
     7
100
AcDbLine
 10
6.008190003432816
 20
8.644487059960535
 30
0.0
 11
9.071530428964729
 21
8.644487059960535
 31
0.0
  0
TEXT
  5
B5
330
1F
100
AcDbEntity
  8
ANNOTATION
  6
Continuous
 62
     7
100
AcDbText
 10
13.0697633066462
 20
21.73095503513479
 30
0.0
 40
0.9999999999999998
  1
right
  7
ARIAL
100
AcDbText
  0
TEXT
  5
B6
330
1F
100
AcDbEntity
  8
ANNOTATION
  6
Continuous
 62
     7
100
AcDbText
 10
13.10982087008197
 20
11.67016117540271
 30
0.0
 40
0.9999999999999998
  1
left
  7
ARIAL
100
AcDbText
  0
TEXT
  5
B7
330
1F
100
AcDbEntity
  8
ANNOTATION
  6
Continuous
 62
     7
100
AcDbText
 10
4.215347286162048
 20
6.84190885008933
 30
0.0
 40
0.3175
  1
6.00 mm
  7
ARIAL
 72
     1
 11
4.989871486497192
 21
7.00065885008933
 31
0.0
100
AcDbText
 73
     2
  0
LINE
  5
B8
330
1F
100
AcDbEntity
  8
ANNOTATION
  6
Continuous
 62
     7
100
AcDbLine
 10
5.223689315954563
 20
4.000658850089329
 30
0.0
 11
4.354871486497196
 21
4.000658850089329
 31
0.0
  0
LINE
  5
B9
330
1F
100
AcDbEntity
  8
ANNOTATION
  6
Continuous
 62
     7
100
AcDbLine
 10
5.234542029132851
 20
10.00065885008933
 30
0.0
 11
4.35487148649719
 21
10.00065885008933
 31
0.0
  0
LINE
  5
BA
330
1F
100
AcDbEntity
  8
ANNOTATION
  6
Continuous
 62
     7
100
AcDbLine
 10
4.989871486497196
 20
4.000658850089329
 30
0.0
 11
4.989871486497193
 21
6.762533850089329
 31
0.0
  0
LINE
  5
BB
330
1F
100
AcDbEntity
  8
ANNOTATION
  6
Continuous
 62
     7
100
AcDbLine
 10
4.98987148649719
 20
10.00065885008933
 30
0.0
 11
4.989871486497192
 21
7.238783850089329
 31
0.0
  0
INSERT
  5
BC
330
1F
100
AcDbEntity
  8
ANNOTATION
  6
Continuous
 62
     7
100
AcDbBlockReference
  2
LONGARROW
 10
4.989871486497196
 20
4.000658850089329
 30
0.0
 41
0.0125
 42
0.0125
 50
90.00000000000005
  0
INSERT
  5
BD
330
1F
100
AcDbEntity
  8
ANNOTATION
  6
Continuous
 62
     7
100
AcDbBlockReference
  2
LONGARROW
 10
4.98987148649719
 20
10.00065885008933
 30
0.0
 41
0.0125
 42
0.0125
 50
270.0
  0
TEXT
  5
BE
330
1F
100
AcDbEntity
  8
ANNOTATION
  6
Continuous
 62
     7
100
AcDbText
 10
8.477185943025263
 20
3.341908850089323
 30
0.0
 40
0.3175
  1
6.50 mm
  7
ARIAL
 72
     1
 11
9.251710143360408
 21
3.500658850089323
 31
0.0
100
AcDbText
 73
     2
  0
LINE
  5
BF
330
1F
100
AcDbEntity
  8
ANNOTATION
  6
Continuous
 62
     7
100
AcDbLine
 10
6.001378257587964
 20
3.680994890400093
 30
0.0
 11
6.001378257587964
 21
2.865658850089324
 31
0.0
  0
LINE
  5
C0
330
1F
100
AcDbEntity
  8
ANNOTATION
  6
Continuous
 62
     7
100
AcDbLine
 10
6.001378257587964
 20
3.500658850089323
 30
0.0
 11
8.089923831029894
 21
3.500658850089323
 31
0.0
  0
LINE
  5
C1
330
1F
100
AcDbEntity
  8
ANNOTATION
  6
Continuous
 62
     7
100
AcDbLine
 10
12.50204202913285
 20
3.500658850089323
 30
0.0
 11
10.41349645569092
 21
3.500658850089323
 31
0.0
  0
INSERT
  5
C2
330
1F
100
AcDbEntity
  8
ANNOTATION
  6
Continuous
 62
     7
100
AcDbBlockReference
  2
LONGARROW
 10
6.001378257587964
 20
3.500658850089323
 30
0.0
 41
0.0125
 42
0.0125
  0
INSERT
  5
C3
330
1F
100
AcDbEntity
  8
ANNOTATION
  6
Continuous
 62
     7
100
AcDbBlockReference
  2
LONGARROW
 10
12.50204202913285
 20
3.500658850089323
 30
0.0
 41
0.0125
 42
0.0125
 50
180.0
  0
TEXT
  5
C4
330
1F
100
AcDbEntity
  8
ANNOTATION
  6
Continuous
 62
     7
100
AcDbText
 10
9.227517828797708
 20
19.84190885008933
 30
0.0
 40
0.3175
  1
2.70 mm
  7
ARIAL
 72
     1
 11
10.00204202913285
 21
20.00065885008933
 31
0.0
100
AcDbText
 73
     2
  0
LINE
  5
C5
330
1F
100
AcDbEntity
  8
ANNOTATION
  6
Continuous
 62
     7
100
AcDbLine
 10
12.18454202913285
 20
18.65065885008933
 30
0.0
 11
9.367042029132853
 21
18.65065885008933
 31
0.0
  0
LINE
  5
C6
330
1F
100
AcDbEntity
  8
ANNOTATION
  6
Continuous
 62
     7
100
AcDbLine
 10
12.18454202913285
 20
21.35065885008933
 30
0.0
 11
9.367042029132852
 21
21.35065885008933
 31
0.0
  0
LINE
  5
C7
330
1F
100
AcDbEntity
  8
ANNOTATION
  6
Continuous
 62
     7
100
AcDbLine
 10
10.00204202913285
 20
18.65065885008933
 30
0.0
 11
10.00204202913285
 21
19.76253385008932
 31
0.0
  0
LINE
  5
C8
330
1F
100
AcDbEntity
  8
ANNOTATION
  6
Continuous
 62
     7
100
AcDbLine
 10
10.00204202913285
 20
21.35065885008933
 30
0.0
 11
10.00204202913285
 21
20.23878385008933
 31
0.0
  0
INSERT
  5
C9
330
1F
100
AcDbEntity
  8
ANNOTATION
  6
Continuous
 62
     7
100
AcDbBlockReference
  2
LONGARROW
 10
10.00204202913285
 20
18.65065885008933
 30
0.0
 41
0.0125
 42
0.0125
 50
90.00000000000005
  0
INSERT
  5
CA
330
1F
100
AcDbEntity
  8
ANNOTATION
  6
Continuous
 62
     7
100
AcDbBlockReference
  2
LONGARROW
 10
10.00204202913285
 20
21.35065885008933
 30
0.0
 41
0.0125
 42
0.0125
 50
270.0
  0
TEXT
  5
CB
330
1F
100
AcDbEntity
  8
ANNOTATION
  6
Continuous
 62
     7
100
AcDbText
 10
12.72751782879771
 20
16.84157942504466
 30
0.0
 40
0.3175
  1
6.00 mm
  7
ARIAL
 72
     1
 11
13.50204202913285
 21
17.00032942504466
 31
0.0
100
AcDbText
 73
     2
  0
LINE
  5
CC
330
1F
100
AcDbEntity
  8
ANNOTATION
  6
Continuous
 62
     7
100
AcDbLine
 10
12.96750000000001
 20
14.0
 30
0.0
 11
14.13704202913286
 21
14.0
 31
0.0
  0
LINE
  5
CD
330
1F
100
AcDbEntity
  8
ANNOTATION
  6
Continuous
 62
     7
100
AcDbLine
 10
13.31954202913285
 20
20.00065885008933
 30
0.0
 11
14.13704202913285
 21
20.00065885008933
 31
0.0
  0
LINE
  5
CE
330
1F
100
AcDbEntity
  8
ANNOTATION
  6
Continuous
 62
     7
100
AcDbLine
 10
13.50204202913285
 20
14.0
 30
0.0
 11
13.50204202913285
 21
16.76220442504466
 31
0.0
  0
LINE
  5
CF
330
1F
100
AcDbEntity
  8
ANNOTATION
  6
Continuous
 62
     7
100
AcDbLine
 10
13.50204202913285
 20
20.00065885008933
 30
0.0
 11
13.50204202913285
 21
17.23845442504466
 31
0.0
  0
INSERT
  5
D0
330
1F
100
AcDbEntity
  8
ANNOTATION
  6
Continuous
 62
     7
100
AcDbBlockReference
  2
LONGARROW
 10
13.50204202913285
 20
14.0
 30
0.0
 41
0.0125
 42
0.0125
 50
90.00000000000005
  0
INSERT
  5
D1
330
1F
100
AcDbEntity
  8
ANNOTATION
  6
Continuous
 62
     7
100
AcDbBlockReference
  2
LONGARROW
 10
13.50204202913285
 20
20.00065885008933
 30
0.0
 41
0.0125
 42
0.0125
 50
270.0
  0
TEXT
  5
D2
330
1F
100
AcDbEntity
  8
ANNOTATION
  6
Continuous
 62
     7
100
AcDbText
 10
8.476496814231278
 20
24.88177708007146
 30
0.0
 40
0.3175
  1
6.50 mm
  7
ARIAL
 72
     1
 11
9.251021014566424
 21
25.04052708007145
 31
0.0
100
AcDbText
 73
     2
  0
LINE
  5
D3
330
1F
100
AcDbEntity
  8
ANNOTATION
  6
Continuous
 62
     7
100
AcDbLine
 10
6.0
 20
24.3175
 30
0.0
 11
6.0
 21
25.67552708007145
 31
0.0
  0
LINE
  5
D4
330
1F
100
AcDbEntity
  8
ANNOTATION
  6
Continuous
 62
     7
100
AcDbLine
 10
12.50204202913284
 20
24.3175
 30
0.0
 11
12.50204202913284
 21
25.67552708007145
 31
0.0
  0
LINE
  5
D5
330
1F
100
AcDbEntity
  8
ANNOTATION
  6
Continuous
 62
     7
100
AcDbLine
 10
6.0
 20
25.04052708007145
 30
0.0
 11
8.089234702235909
 21
25.04052708007145
 31
0.0
  0
LINE
  5
D6
330
1F
100
AcDbEntity
  8
ANNOTATION
  6
Continuous
 62
     7
100
AcDbLine
 10
12.50204202913284
 20
25.04052708007145
 30
0.0
 11
10.41280732689694
 21
25.04052708007145
 31
0.0
  0
INSERT
  5
D7
330
1F
100
AcDbEntity
  8
ANNOTATION
  6
Continuous
 62
     7
100
AcDbBlockReference
  2
LONGARROW
 10
6.0
 20
25.04052708007145
 30
0.0
 41
0.0125
 42
0.0125
  0
INSERT
  5
D8
330
1F
100
AcDbEntity
  8
ANNOTATION
  6
Continuous
 62
     7
100
AcDbBlockReference
  2
LONGARROW
 10
12.50204202913284
 20
25.04052708007145
 30
0.0
 41
0.0125
 42
0.0125
 50
180.0
  0
LWPOLYLINE
  5
D9
102
{ACAD_REACTORS
330
DA
102
}
330
1F
100
AcDbEntity
  8
LAYOUT
  6
Continuous
 62
     7
100
AcDbPolyline
 90
        5
 70
     0
 43
0.0
 10
7.22798200396818
 20
20.57471887525403
 10
9.447464495345307
 20
22.79420136663115
 10
10.19558454567468
 20
22.04608131630178
 10
7.976102054297531
 20
19.82659882492465
 10
7.22798200396818
 20
20.57471887525403
  0
HATCH
  5
DA
330
1F
100
AcDbEntity
  8
LAYOUT
  6
Continuous
 62
     7
100
AcDbHatch
 10
0.0
 20
0.0
 30
0.0
210
0.0
220
0.0
230
1.0
  2
SOLID
 70
     1
 71
     1
 91
        1
 92
        1
 93
        4
 72
     1
 10
7.22798200396818
 20
20.57471887525403
 11
9.447464495345307
 21
22.79420136663115
 72
     1
 10
9.447464495345307
 20
22.79420136663115
 11
10.19558454567468
 21
22.04608131630178
 72
     1
 10
10.19558454567468
 20
22.04608131630178
 11
7.976102054297531
 21
19.82659882492465
 72
     1
 10
7.976102054297531
 20
19.82659882492465
 11
7.22798200396818
 21
20.57471887525403
 97
        1
330
D9
 75
     0
 76
     1
 98
        1
 10
0.0
 20
0.0
  0
LWPOLYLINE
  5
DB
330
1F
100
AcDbEntity
  8
ANNOTATION
  6
Continuous
 62
     7
100
AcDbPolyline
 90
        4
 70
     1
 43
0.0
 10
10.73820921904617
 20
6.629104520696111
 10
12.33820921904617
 20
6.629104520696111
 10
12.33820921904617
 20
9.829104520696111
 10
10.73820921904617
 20
9.829104520696111
  0
LWPOLYLINE
  5
DC
330
1F
100
AcDbEntity
  8
ANNOTATION
  6
Continuous
 62
     7
100
AcDbPolyline
 90
        4
 70
     1
 43
0.0
 10
6.181301606753027
 20
16.67574507861573
 10
7.781301606753032
 20
16.67574507861573
 10
7.781301606753032
 20
19.87574507861573
 10
6.181301606753027
 20
19.87574507861573
  0
TEXT
  5
DD
330
1F
100
AcDbEntity
  8
ANNOTATION
  6
Continuous
 62
     7
100
AcDbText
 10
14.79164044129236
 20
5.501973631042634
 30
0.0
 40
0.5603448275862066
  1
Encoder Mount
 41
0.8923076923076926
  7
ARIAL
100
AcDbText
  0
TEXT
  5
DE
330
1F
100
AcDbEntity
  8
ANNOTATION
  6
Continuous
 62
     7
100
AcDbText
 10
14.79164044129236
 20
4.997663286215048
 30
0.0
 40
0.336206896551724
  1
Right and Left
 41
0.8923076923076926
  7
ARIAL
100
AcDbText
  0
TEXT
  5
DF
330
1F
100
AcDbEntity
  8
ANNOTATION
  6
Continuous
 62
     7
100
AcDbText
 10
14.79164044129236
 20
4.493352941387461
 30
0.0
 40
0.336206896551724
  1
10::1 scale
 41
0.8923076923076926
  7
ARIAL
100
AcDbText
  0
TEXT
  5
E0
330
1F
100
AcDbEntity
  8
ANNOTATION
  6
Continuous
 62
     7
100
AcDbText
 10
14.79164044129236
 20
2.812318458628841
 30
0.0
 40
1.120689655172413
  1

 41
0.8923076923076926
  7
ARIAL
100
AcDbText
  0
INSERT
  5
E1
330
1F
100
AcDbEntity
  8
ANNOTATION
  6
Continuous
 62
     7
100
AcDbBlockReference
  2
LONGARROW
 10
12.3
 20
8.300000000000002
 30
0.0
 41
0.0125
 42
0.0125
 50
22.98871680208063
  0
LWPOLYLINE
  5
E2
330
1F
100
AcDbEntity
  8
ANNOTATION
  6
Continuous
 62
     7
100
AcDbPolyline
 90
        3
 70
     0
 43
0.0
 10
12.3
 20
8.300000000000002
 10
13.95
 20
9.000000000000001
 10
14.9025
 20
9.000000000000001
  0
TEXT
  5
E3
330
1F
100
AcDbEntity
  8
ANNOTATION
  6
Continuous
 62
     7
100
AcDbText
 10
15.22
 20
8.800000000000004
 30
0.0
 40
0.4
  1
SMD led resistor
  7
ARIAL
 11
15.22
 21
9.000000000000003
 31
0.0
100
AcDbText
 73
     2
  0
INSERT
  5
E4
330
1F
100
AcDbEntity
  8
ANNOTATION
  6
Continuous
 62
     7
100
AcDbBlockReference
  2
LONGARROW
 10
6.0
 20
10.75
 30
0.0
 41
0.0125
 42
0.0125
 50
153.4349488229219
  0
LWPOLYLINE
  5
E5
330
1F
100
AcDbEntity
  8
ANNOTATION
  6
Continuous
 62
     7
100
AcDbPolyline
 90
        3
 70
     0
 43
0.0
 10
6.0
 20
10.75
 10
4.6
 20
11.45
 10
3.6475
 20
11.45
  0
TEXT
  5
E6
330
1F
100
AcDbEntity
  8
ANNOTATION
  6
Continuous
 62
     7
100
AcDbText
 10
1.15449828479439
 20
11.25
 30
0.0
 40
0.4
  1
CNB1302
  7
ARIAL
 72
     2
 11
3.33
 21
11.45
 31
0.0
100
AcDbText
 73
     2
  0
ENDSEC
  0
SECTION
  2
OBJECTS
  0
DICTIONARY
  5
C
330
0
100
AcDbDictionary
281
     1
  3
ACAD_GROUP
350
D
  3
ACAD_LAYOUT
350
1A
  3
ACAD_MLINESTYLE
350
17
  3
ACAD_PLOTSETTINGS
350
19
  3
ACAD_PLOTSTYLENAME
350
E
  3
AcDbVariableDictionary
350
E7
  0
DICTIONARY
  5
D
102
{ACAD_REACTORS
330
C
102
}
330
C
100
AcDbDictionary
281
     1
  3
*A1
350
7E
  3
*A2
350
87
  3
*A3
350
9E
  3
*A4
350
A8
  3
*A5
350
AF
  0
DICTIONARY
  5
1A
102
{ACAD_REACTORS
330
C
102
}
330
C
100
AcDbDictionary
281
     1
  3
Layout1
350
1E
  3
Layout2
350
26
  3
Model
350
22
  0
DICTIONARY
  5
17
102
{ACAD_REACTORS
330
C
102
}
330
C
100
AcDbDictionary
281
     1
  3
Standard
350
18
  0
DICTIONARY
  5
19
102
{ACAD_REACTORS
330
C
102
}
330
C
100
AcDbDictionary
281
     1
  0
ACDBDICTIONARYWDFLT
  5
E
102
{ACAD_REACTORS
330
C
102
}
330
C
100
AcDbDictionary
281
     1
  3
Normal
350
F
100
AcDbDictionaryWithDefault
340
F
  0
DICTIONARY
  5
E7
102
{ACAD_REACTORS
330
C
102
}
330
C
100
AcDbDictionary
281
     1
  3
DIMASSOC
350
E9
  3
HIDETEXT
350
E8
  0
GROUP
  5
7E
102
{ACAD_REACTORS
330
D
102
}
330
D
100
AcDbGroup
300

 70
     0
 71
     1
340
7F
340
80
340
81
340
82
  0
GROUP
  5
87
102
{ACAD_REACTORS
330
D
102
}
330
D
100
AcDbGroup
300

 70
     0
 71
     1
340
88
340
89
340
8A
340
8B
340
8C
  0
GROUP
  5
9E
102
{ACAD_REACTORS
330
D
102
}
330
D
100
AcDbGroup
300

 70
     0
 71
     1
340
9F
340
A0
340
A1
340
A2
  0
GROUP
  5
A8
102
{ACAD_REACTORS
330
D
102
}
330
D
100
AcDbGroup
300

 70
     0
 71
     1
340
A9
340
AA
340
AB
340
AC
340
AD
  0
GROUP
  5
AF
102
{ACAD_REACTORS
330
D
102
}
330
D
100
AcDbGroup
300

 70
     0
 71
     1
340
B0
340
B1
340
B2
340
B3
340
B4
  0
LAYOUT
  5
1E
102
{ACAD_REACTORS
330
1A
102
}
330
1A
100
AcDbPlotSettings
  1

  2

  4

  6

 40
0.0
 41
0.0
 42
0.0
 43
0.0
 44
0.0
 45
0.0
 46
0.0
 47
0.0
 48
0.0
 49
0.0
140
0.0
141
0.0
142
1.0
143
1.0
 70
   688
 72
     0
 73
     0
 74
     5
  7

 75
    16
147
1.0
148
0.0
149
0.0
100
AcDbLayout
  1
Layout1
 70
     1
 71
     1
 10
0.0
 20
0.0
 11
12.0
 21
9.0
 12
0.0
 22
0.0
 32
0.0
 14
1.000000000000000E+20
 24
1.000000000000000E+20
 34
1.000000000000000E+20
 15
-1.000000000000000E+20
 25
-1.000000000000000E+20
 35
-1.000000000000000E+20
146
0.0
 13
0.0
 23
0.0
 33
0.0
 16
1.0
 26
0.0
 36
0.0
 17
0.0
 27
1.0
 37
0.0
 76
     0
330
1B
  0
LAYOUT
  5
26
102
{ACAD_REACTORS
330
1A
102
}
330
1A
100
AcDbPlotSettings
  1

  2

  4

  6

 40
0.0
 41
0.0
 42
0.0
 43
0.0
 44
0.0
 45
0.0
 46
0.0
 47
0.0
 48
0.0
 49
0.0
140
0.0
141
0.0
142
1.0
143
1.0
 70
   688
 72
     0
 73
     0
 74
     5
  7

 75
    16
147
1.0
148
0.0
149
0.0
100
AcDbLayout
  1
Layout2
 70
     1
 71
     2
 10
0.0
 20
0.0
 11
12.0
 21
9.0
 12
0.0
 22
0.0
 32
0.0
 14
0.0
 24
0.0
 34
0.0
 15
0.0
 25
0.0
 35
0.0
146
0.0
 13
0.0
 23
0.0
 33
0.0
 16
1.0
 26
0.0
 36
0.0
 17
0.0
 27
1.0
 37
0.0
 76
     0
330
23
  0
LAYOUT
  5
22
102
{ACAD_REACTORS
330
1A
102
}
330
1A
100
AcDbPlotSettings
  1

  2

  4

  6

 40
0.0
 41
0.0
 42
0.0
 43
0.0
 44
0.0
 45
0.0
 46
0.0
 47
0.0
 48
0.0
 49
0.0
140
0.0
141
0.0
142
1.0
143
1.0
 70
  1712
 72
     0
 73
     0
 74
     0
  7

 75
     0
147
1.0
148
0.0
149
0.0
100
AcDbLayout
  1
Model
 70
     1
 71
     0
 10
0.0
 20
0.0
 11
12.0
 21
9.0
 12
0.0
 22
0.0
 32
0.0
 14
0.0
 24
0.0
 34
0.0
 15
0.0
 25
0.0
 35
0.0
146
0.0
 13
0.0
 23
0.0
 33
0.0
 16
1.0
 26
0.0
 36
0.0
 17
0.0
 27
1.0
 37
0.0
 76
     0
330
1F
  0
MLINESTYLE
  5
18
102
{ACAD_REACTORS
330
17
102
}
330
17
100
AcDbMlineStyle
  2
STANDARD
 70
     0
  3

 62
   256
 51
90.0
 52
90.0
 71
     2
 49
0.5
 62
   256
  6
BYLAYER
 49
-0.5
 62
   256
  6
BYLAYER
  0
ACDBPLACEHOLDER
  5
F
102
{ACAD_REACTORS
330
E
102
}
330
E
  0
DICTIONARYVAR
  5
E9
102
{ACAD_REACTORS
330
E7
102
}
330
E7
100
DictionaryVariables
280
     0
  1
2
  0
DICTIONARYVAR
  5
E8
102
{ACAD_REACTORS
330
E7
102
}
330
E7
100
DictionaryVariables
280
     0
  1
1
  0
ENDSEC
  0
EOF
