  0
SECTION
  2
HEADER
  9
$ACADVER
  1
AC1015
  9
$ACADMAINTVER
 70
    13
  9
$DWGCODEPAGE
  3
ANSI_1252
  9
$INSBASE
 10
0.0
 20
0.0
 30
0.0
  9
$EXTMIN
 10
4.042500000000021
 20
6.125000000000001
 30
-0.00000001
  9
$EXTMAX
 10
65.5766448946245
 20
48.33749999999999
 30
0.00000001
  9
$LIMMIN
 10
0.0
 20
0.0
  9
$LIMMAX
 10
2.75
 20
2.125
  9
$ORTHOMODE
 70
     0
  9
$REGENMODE
 70
     1
  9
$FILLMODE
 70
     1
  9
$QTEXTMODE
 70
     0
  9
$MIRRTEXT
 70
     1
  9
$LTSCALE
 40
1.0
  9
$ATTMODE
 70
     1
  9
$TEXTSIZE
 40
1.249999999999999
  9
$TRACEWID
 40
0.05
  9
$TEXTSTYLE
  7
Standard
  9
$CLAYER
  8
0
  9
$CELTYPE
  6
ByLayer
  9
$CECOLOR
 62
   256
  9
$CELTSCALE
 40
1.0
  9
$DISPSILH
 70
     0
  9
$DIMSCALE
 40
1.0
  9
$DIMASZ
 40
0.18
  9
$DIMEXO
 40
0.0625
  9
$DIMDLI
 40
0.38
  9
$DIMRND
 40
0.0
  9
$DIMDLE
 40
0.0
  9
$DIMEXE
 40
0.18
  9
$DIMTP
 40
0.0
  9
$DIMTM
 40
0.0
  9
$DIMTXT
 40
0.03125
  9
$DIMCEN
 40
0.09
  9
$DIMTSZ
 40
0.0
  9
$DIMTOL
 70
     0
  9
$DIMLIM
 70
     0
  9
$DIMTIH
 70
     1
  9
$DIMTOH
 70
     1
  9
$DIMSE1
 70
     0
  9
$DIMSE2
 70
     0
  9
$DIMTAD
 70
     0
  9
$DIMZIN
 70
     0
  9
$DIMBLK
  1

  9
$DIMASO
 70
     1
  9
$DIMSHO
 70
     1
  9
$DIMPOST
  1

  9
$DIMAPOST
  1

  9
$DIMALT
 70
     0
  9
$DIMALTD
 70
     2
  9
$DIMALTF
 40
25.4
  9
$DIMLFAC
 40
1.0
  9
$DIMTOFL
 70
     0
  9
$DIMTVP
 40
0.0
  9
$DIMTIX
 70
     0
  9
$DIMSOXD
 70
     0
  9
$DIMSAH
 70
     0
  9
$DIMBLK1
  1

  9
$DIMBLK2
  1

  9
$DIMSTYLE
  2
Standard
  9
$DIMCLRD
 70
     0
  9
$DIMCLRE
 70
     0
  9
$DIMCLRT
 70
     0
  9
$DIMTFAC
 40
1.0
  9
$DIMGAP
 40
0.09
  9
$DIMJUST
 70
     0
  9
$DIMSD1
 70
     0
  9
$DIMSD2
 70
     0
  9
$DIMTOLJ
 70
     1
  9
$DIMTZIN
 70
     0
  9
$DIMALTZ
 70
     0
  9
$DIMALTTZ
 70
     0
  9
$DIMUPT
 70
     0
  9
$DIMDEC
 70
     2
  9
$DIMTDEC
 70
     4
  9
$DIMALTU
 70
     2
  9
$DIMALTTD
 70
     2
  9
$DIMTXSTY
  7
Standard
  9
$DIMAUNIT
 70
     1
  9
$DIMADEC
 70
     0
  9
$DIMALTRND
 40
0.0
  9
$DIMAZIN
 70
     0
  9
$DIMDSEP
 70
    46
  9
$DIMATFIT
 70
     3
  9
$DIMFRAC
 70
     0
  9
$DIMLDRBLK
  1

  9
$DIMLUNIT
 70
     4
  9
$DIMLWD
 70
    -2
  9
$DIMLWE
 70
    -2
  9
$DIMTMOVE
 70
     0
  9
$LUNITS
 70
     2
  9
$LUPREC
 70
     2
  9
$SKETCHINC
 40
0.1
  9
$FILLETRAD
 40
12.7
  9
$AUNITS
 70
     0
  9
$AUPREC
 70
     2
  9
$MENU
  1
.
  9
$ELEVATION
 40
0.0
  9
$PELEVATION
 40
0.0
  9
$THICKNESS
 40
0.0
  9
$LIMCHECK
 70
     0
  9
$CHAMFERA
 40
6.349999999999999
  9
$CHAMFERB
 40
6.349999999999999
  9
$CHAMFERC
 40
0.0
  9
$CHAMFERD
 40
0.0
  9
$SKPOLY
 70
     0
  9
$TDCREATE
 40
2454195.862274467
  9
$TDUCREATE
 40
2454196.112274467
  9
$TDUPDATE
 40
2454195.862274467
  9
$TDUUPDATE
 40
2454196.112274467
  9
$TDINDWG
 40
0.0000097454
  9
$TDUSRTIMER
 40
0.0000097454
  9
$USRTIMER
 70
     1
  9
$ANGBASE
 50
0.0
  9
$ANGDIR
 70
     0
  9
$PDMODE
 70
     0
  9
$PDSIZE
 40
0.0
  9
$PLINEWID
 40
0.0
  9
$SPLFRAME
 70
     0
  9
$SPLINETYPE
 70
     6
  9
$SPLINESEGS
 70
     8
  9
$HANDSEED
  5
133
  9
$SURFTAB1
 70
     6
  9
$SURFTAB2
 70
     6
  9
$SURFTYPE
 70
     6
  9
$SURFU
 70
     6
  9
$SURFV
 70
     6
  9
$UCSBASE
  2

  9
$UCSNAME
  2

  9
$UCSORG
 10
0.0
 20
0.0
 30
0.0
  9
$UCSXDIR
 10
1.0
 20
0.0
 30
0.0
  9
$UCSYDIR
 10
0.0
 20
1.0
 30
0.0
  9
$UCSORTHOREF
  2

  9
$UCSORTHOVIEW
 70
     0
  9
$UCSORGTOP
 10
0.0
 20
0.0
 30
0.0
  9
$UCSORGBOTTOM
 10
0.0
 20
0.0
 30
0.0
  9
$UCSORGLEFT
 10
0.0
 20
0.0
 30
0.0
  9
$UCSORGRIGHT
 10
0.0
 20
0.0
 30
0.0
  9
$UCSORGFRONT
 10
0.0
 20
0.0
 30
0.0
  9
$UCSORGBACK
 10
0.0
 20
0.0
 30
0.0
  9
$PUCSBASE
  2

  9
$PUCSNAME
  2

  9
$PUCSORG
 10
0.0
 20
0.0
 30
0.0
  9
$PUCSXDIR
 10
1.0
 20
0.0
 30
0.0
  9
$PUCSYDIR
 10
0.0
 20
1.0
 30
0.0
  9
$PUCSORTHOREF
  2

  9
$PUCSORTHOVIEW
 70
     0
  9
$PUCSORGTOP
 10
0.0
 20
0.0
 30
0.0
  9
$PUCSORGBOTTOM
 10
0.0
 20
0.0
 30
0.0
  9
$PUCSORGLEFT
 10
0.0
 20
0.0
 30
0.0
  9
$PUCSORGRIGHT
 10
0.0
 20
0.0
 30
0.0
  9
$PUCSORGFRONT
 10
0.0
 20
0.0
 30
0.0
  9
$PUCSORGBACK
 10
0.0
 20
0.0
 30
0.0
  9
$USERI1
 70
     0
  9
$USERI2
 70
     0
  9
$USERI3
 70
     0
  9
$USERI4
 70
     0
  9
$USERI5
 70
     0
  9
$USERR1
 40
0.0
  9
$USERR2
 40
0.0
  9
$USERR3
 40
0.0
  9
$USERR4
 40
0.0
  9
$USERR5
 40
0.0
  9
$WORLDVIEW
 70
     1
  9
$SHADEDGE
 70
     3
  9
$SHADEDIF
 70
    70
  9
$TILEMODE
 70
     1
  9
$MAXACTVP
 70
    64
  9
$PINSBASE
 10
0.0
 20
0.0
 30
0.0
  9
$PLIMCHECK
 70
     0
  9
$PEXTMIN
 10
1.000000000000000E+20
 20
1.000000000000000E+20
 30
1.000000000000000E+20
  9
$PEXTMAX
 10
-1.000000000000000E+20
 20
-1.000000000000000E+20
 30
-1.000000000000000E+20
  9
$PLIMMIN
 10
0.0
 20
0.0
  9
$PLIMMAX
 10
12.0
 20
9.0
  9
$UNITMODE
 70
     0
  9
$VISRETAIN
 70
     1
  9
$PLINEGEN
 70
     0
  9
$PSLTSCALE
 70
     1
  9
$TREEDEPTH
 70
  3020
  9
$CMLSTYLE
  2
Standard
  9
$CMLJUST
 70
     0
  9
$CMLSCALE
 40
1.0
  9
$PROXYGRAPHICS
 70
     1
  9
$MEASUREMENT
 70
     0
  9
$CELWEIGHT
370
    -1
  9
$ENDCAPS
280
     0
  9
$JOINSTYLE
280
     0
  9
$LWDISPLAY
290
     0
  9
$INSUNITS
 70
     0
  9
$HYPERLINKBASE
  1

  9
$STYLESHEET
  1

  9
$XEDIT
290
     1
  9
$CEPSNTYPE
380
     0
  9
$PSTYLEMODE
290
     1
  9
$FINGERPRINTGUID
  2
{27966AD3-8708-4CAD-9AF8-948FF303CF8A}
  9
$VERSIONGUID
  2
{3C68B19B-1D68-4858-9CA2-DC094AB523B5}
  9
$EXTNAMES
290
     1
  9
$PSVPSCALE
 40
0.0
  9
$OLESTARTUP
290
     0
  0
ENDSEC
  0
SECTION
  2
CLASSES
  0
CLASS
  1
ACDBDICTIONARYWDFLT
  2
AcDbDictionaryWithDefault
  3
AutoCAD 2000
 90
        0
280
     0
281
     0
  0
CLASS
  1
ACDBPLACEHOLDER
  2
AcDbPlaceHolder
  3
AutoCAD 2000
 90
        0
280
     0
281
     0
  0
CLASS
  1
LAYOUT
  2
AcDbLayout
  3
AutoCAD 2000
 90
        0
280
     0
281
     0
  0
CLASS
  1
DICTIONARYVAR
  2
AcDbDictionaryVar
  3
AutoCAD 2000
 90
        0
280
     0
281
     0
  0
ENDSEC
  0
SECTION
  2
TABLES
  0
TABLE
  2
VPORT
  5
8
330
0
100
AcDbSymbolTable
 70
     1
  0
VPORT
  5
13
330
8
100
AcDbSymbolTableRecord
100
AcDbViewportTableRecord
  2
*Active
 70
     0
 10
0.0
 20
0.0
 11
1.0
 21
1.0
 12
32.78832244731225
 22
24.16874999999999
 13
0.0
 23
0.0
 14
1.0
 24
1.0
 15
0.0
 25
0.0
 16
0.0
 26
0.0
 36
1.0
 17
0.0
 27
0.0
 37
0.0
 40
48.33749999999999
 41
1.356641218404437
 42
50.0
 43
0.0
 44
0.0
 50
0.0
 51
0.0
 71
     0
 72
   100
 73
     1
 74
     1
 75
     0
 76
     0
 77
     0
 78
     0
281
     0
 65
     1
110
0.0
120
0.0
130
0.0
111
1.0
121
0.0
131
0.0
112
0.0
122
1.0
132
0.0
 79
     0
146
0.0
  0
ENDTAB
  0
TABLE
  2
LTYPE
  5
5
330
0
100
AcDbSymbolTable
 70
    40
  0
LTYPE
  5
14
330
5
100
AcDbSymbolTableRecord
100
AcDbLinetypeTableRecord
  2
ByBlock
 70
     0
  3

 72
    65
 73
     0
 40
0.0
  0
LTYPE
  5
15
330
5
100
AcDbSymbolTableRecord
100
AcDbLinetypeTableRecord
  2
ByLayer
 70
     0
  3

 72
    65
 73
     0
 40
0.0
  0
LTYPE
  5
16
330
5
100
AcDbSymbolTableRecord
100
AcDbLinetypeTableRecord
  2
Continuous
 70
     0
  3
Solid line
 72
    65
 73
     0
 40
0.0
  0
LTYPE
  5
28
330
5
100
AcDbSymbolTableRecord
100
AcDbLinetypeTableRecord
  2
HIDDEN
 70
     0
  3
_ _ _ _ _ _ _ _ _ _ _ _ _ _ 
 72
    65
 73
     2
 40
9.524999999999998
 49
6.349999999999999
 74
     0
 49
-3.174999999999999
 74
     0
  0
LTYPE
  5
29
330
5
100
AcDbSymbolTableRecord
100
AcDbLinetypeTableRecord
  2
DASHED
 70
     0
  3
__ __ __ __ __ __ __ __ __ 
 72
    65
 73
     2
 40
19.04999999999999
 49
12.7
 74
     0
 49
-6.349999999999999
 74
     0
  0
LTYPE
  5
2A
330
5
100
AcDbSymbolTableRecord
100
AcDbLinetypeTableRecord
  2
CENTER
 70
     0
  3
____ _ ____ _ ____ _ ____ _ 
 72
    65
 73
     4
 40
50.8
 49
31.75
 74
     0
 49
-6.349999999999999
 74
     0
 49
6.349999999999999
 74
     0
 49
-6.349999999999999
 74
     0
  0
LTYPE
  5
2B
330
5
100
AcDbSymbolTableRecord
100
AcDbLinetypeTableRecord
  2
PHANTOM
 70
     0
  3
_____ _ _ _____ _ _ _____ _ _ 
 72
    65
 73
     6
 40
63.50000000000001
 49
31.75
 74
     0
 49
-6.349999999999999
 74
     0
 49
6.349999999999999
 74
     0
 49
-6.349999999999999
 74
     0
 49
6.349999999999999
 74
     0
 49
-6.349999999999999
 74
     0
  0
LTYPE
  5
2C
330
5
100
AcDbSymbolTableRecord
100
AcDbLinetypeTableRecord
  2
DOT
 70
     0
  3
...........................
 72
    65
 73
     2
 40
6.349999999999999
 49
0.0
 74
     0
 49
-6.349999999999999
 74
     0
  0
LTYPE
  5
2D
330
5
100
AcDbSymbolTableRecord
100
AcDbLinetypeTableRecord
  2
DASHDOT
 70
     0
  3
__ . __ . __ . __ . __ . __ . 
 72
    65
 73
     4
 40
25.4
 49
12.7
 74
     0
 49
-6.349999999999999
 74
     0
 49
0.0
 74
     0
 49
-6.349999999999999
 74
     0
  0
LTYPE
  5
2E
330
5
100
AcDbSymbolTableRecord
100
AcDbLinetypeTableRecord
  2
DIVIDE
 70
     0
  3
__ . . __ . . __ . . __ . . 
 72
    65
 73
     6
 40
31.75
 49
12.7
 74
     0
 49
-6.349999999999999
 74
     0
 49
0.0
 74
     0
 49
-6.349999999999999
 74
     0
 49
0.0
 74
     0
 49
-6.349999999999999
 74
     0
  0
LTYPE
  5
2F
330
5
100
AcDbSymbolTableRecord
100
AcDbLinetypeTableRecord
  2
BORDER
 70
     0
  3
__ __ . __ __ . __ __ . __ __ .
 72
    65
 73
     6
 40
44.44999999999999
 49
12.7
 74
     0
 49
-6.349999999999999
 74
     0
 49
12.7
 74
     0
 49
-6.349999999999999
 74
     0
 49
0.0
 74
     0
 49
-6.349999999999999
 74
     0
  0
LTYPE
  5
30
330
5
100
AcDbSymbolTableRecord
100
AcDbLinetypeTableRecord
  2
BORDER2
 70
     0
  3
Border (.5x) __.__.__.__.__.__.
 72
    65
 73
     6
 40
0.875
 49
0.25
 74
     0
 49
-0.125
 74
     0
 49
0.25
 74
     0
 49
-0.125
 74
     0
 49
0.0
 74
     0
 49
-0.125
 74
     0
  0
LTYPE
  5
31
330
5
100
AcDbSymbolTableRecord
100
AcDbLinetypeTableRecord
  2
BORDERX2
 70
     0
  3
Border (2x) ____  ____  .  ____
 72
    65
 73
     6
 40
3.5
 49
1.0
 74
     0
 49
-0.5
 74
     0
 49
1.0
 74
     0
 49
-0.5
 74
     0
 49
0.0
 74
     0
 49
-0.5
 74
     0
  0
LTYPE
  5
32
330
5
100
AcDbSymbolTableRecord
100
AcDbLinetypeTableRecord
  2
CENTER2
 70
     0
  3
Center (.5x) ___ _ ___ _ ___ _ 
 72
    65
 73
     4
 40
1.125
 49
0.7500000000000001
 74
     0
 49
-0.125
 74
     0
 49
0.125
 74
     0
 49
-0.125
 74
     0
  0
LTYPE
  5
33
330
5
100
AcDbSymbolTableRecord
100
AcDbLinetypeTableRecord
  2
CENTERX2
 70
     0
  3
Center (2x) ________  __  _____
 72
    65
 73
     4
 40
4.0
 49
2.5
 74
     0
 49
-0.5
 74
     0
 49
0.5
 74
     0
 49
-0.5
 74
     0
  0
LTYPE
  5
34
330
5
100
AcDbSymbolTableRecord
100
AcDbLinetypeTableRecord
  2
DASHDOT2
 70
     0
  3
Dash dot (.5x) _._._._._._._._.
 72
    65
 73
     4
 40
0.5
 49
0.25
 74
     0
 49
-0.125
 74
     0
 49
0.0
 74
     0
 49
-0.125
 74
     0
  0
LTYPE
  5
35
330
5
100
AcDbSymbolTableRecord
100
AcDbLinetypeTableRecord
  2
DASHDOTX2
 70
     0
  3
Dash dot (2x) ____  .  ____  . 
 72
    65
 73
     4
 40
2.0
 49
1.0
 74
     0
 49
-0.5
 74
     0
 49
0.0
 74
     0
 49
-0.5
 74
     0
  0
LTYPE
  5
36
330
5
100
AcDbSymbolTableRecord
100
AcDbLinetypeTableRecord
  2
DASHED2
 70
     0
  3
Dashed (.5x) _ _ _ _ _ _ _ _ _ 
 72
    65
 73
     2
 40
0.375
 49
0.25
 74
     0
 49
-0.125
 74
     0
  0
LTYPE
  5
37
330
5
100
AcDbSymbolTableRecord
100
AcDbLinetypeTableRecord
  2
DASHEDX2
 70
     0
  3
Dashed (2x) ____  ____  ____  _
 72
    65
 73
     2
 40
1.5
 49
1.0
 74
     0
 49
-0.5
 74
     0
  0
LTYPE
  5
38
330
5
100
AcDbSymbolTableRecord
100
AcDbLinetypeTableRecord
  2
DIVIDE2
 70
     0
  3
Divide (.5x) __..__..__..__..__
 72
    65
 73
     6
 40
0.625
 49
0.25
 74
     0
 49
-0.125
 74
     0
 49
0.0
 74
     0
 49
-0.125
 74
     0
 49
0.0
 74
     0
 49
-0.125
 74
     0
  0
LTYPE
  5
39
330
5
100
AcDbSymbolTableRecord
100
AcDbLinetypeTableRecord
  2
DIVIDEX2
 70
     0
  3
Divide (2x) ________  .  .  ___
 72
    65
 73
     6
 40
2.5
 49
1.0
 74
     0
 49
-0.5
 74
     0
 49
0.0
 74
     0
 49
-0.5
 74
     0
 49
0.0
 74
     0
 49
-0.5
 74
     0
  0
LTYPE
  5
3A
330
5
100
AcDbSymbolTableRecord
100
AcDbLinetypeTableRecord
  2
DOT2
 70
     0
  3
Dot (.5x) .....................
 72
    65
 73
     2
 40
0.125
 49
0.0
 74
     0
 49
-0.125
 74
     0
  0
LTYPE
  5
3B
330
5
100
AcDbSymbolTableRecord
100
AcDbLinetypeTableRecord
  2
DOTX2
 70
     0
  3
Dot (2x) .  .  .  .  .  .  .  .
 72
    65
 73
     2
 40
0.5
 49
0.0
 74
     0
 49
-0.5
 74
     0
  0
LTYPE
  5
3C
330
5
100
AcDbSymbolTableRecord
100
AcDbLinetypeTableRecord
  2
HIDDEN2
 70
     0
  3
Hidden (.5x) _ _ _ _ _ _ _ _ _ 
 72
    65
 73
     2
 40
0.1875
 49
0.125
 74
     0
 49
-0.0625
 74
     0
  0
LTYPE
  5
3D
330
5
100
AcDbSymbolTableRecord
100
AcDbLinetypeTableRecord
  2
HIDDENX2
 70
     0
  3
Hidden (2x) ____ ____ ____ ____
 72
    65
 73
     2
 40
0.75
 49
0.5
 74
     0
 49
-0.25
 74
     0
  0
LTYPE
  5
3E
330
5
100
AcDbSymbolTableRecord
100
AcDbLinetypeTableRecord
  2
PHANTOM2
 70
     0
  3
Phantom (.5x) ___ _ _ ___ _ _ _
 72
    65
 73
     6
 40
1.25
 49
0.6250000000000001
 74
     0
 49
-0.125
 74
     0
 49
0.125
 74
     0
 49
-0.125
 74
     0
 49
0.125
 74
     0
 49
-0.125
 74
     0
  0
LTYPE
  5
3F
330
5
100
AcDbSymbolTableRecord
100
AcDbLinetypeTableRecord
  2
PHANTOMX2
 70
     0
  3
Phantom (2x) ____________    __
 72
    65
 73
     6
 40
5.0
 49
2.5
 74
     0
 49
-0.5
 74
     0
 49
0.5
 74
     0
 49
-0.5
 74
     0
 49
0.5
 74
     0
 49
-0.5
 74
     0
  0
LTYPE
  5
40
330
5
100
AcDbSymbolTableRecord
100
AcDbLinetypeTableRecord
  2
DOTS
 70
     0
  3
Dots - - - - - - - - - - - - - 
 72
    65
 73
     2
 40
0.1
 49
0.05
 74
     0
 49
-0.05
 74
     0
  0
LTYPE
  5
41
330
5
100
AcDbSymbolTableRecord
100
AcDbLinetypeTableRecord
  2
ACAD_ISO02W100
 70
     0
  3
__ __ __ __ __ __ __ __ __ __ _
 72
    65
 73
     2
 40
15.0
 49
12.0
 74
     0
 49
-3.0
 74
     0
  0
LTYPE
  5
42
330
5
100
AcDbSymbolTableRecord
100
AcDbLinetypeTableRecord
  2
ACAD_ISO03W100
 70
     0
  3
__    __    __    __    __    _
 72
    65
 73
     2
 40
30.0
 49
12.0
 74
     0
 49
-18.0
 74
     0
  0
LTYPE
  5
43
330
5
100
AcDbSymbolTableRecord
100
AcDbLinetypeTableRecord
  2
ACAD_ISO04W100
 70
     0
  3
____ . ____ . ____ . ____ . ___
 72
    65
 73
     4
 40
30.5
 49
24.0
 74
     0
 49
-3.0
 74
     0
 49
0.5
 74
     0
 49
-3.0
 74
     0
  0
LTYPE
  5
44
330
5
100
AcDbSymbolTableRecord
100
AcDbLinetypeTableRecord
  2
ACAD_ISO05W100
 70
     0
  3
____ .. ____ .. ____ .. ____ ..
 72
    65
 73
     6
 40
34.0
 49
24.0
 74
     0
 49
-3.0
 74
     0
 49
0.5
 74
     0
 49
-3.0
 74
     0
 49
0.5
 74
     0
 49
-3.0
 74
     0
  0
LTYPE
  5
45
330
5
100
AcDbSymbolTableRecord
100
AcDbLinetypeTableRecord
  2
ACAD_ISO06W100
 70
     0
  3
____ ... ____ ... ____ ... ____
 72
    65
 73
     6
 40
34.0
 49
24.0
 74
     0
 49
-3.0
 74
     0
 49
0.5
 74
     0
 49
-3.0
 74
     0
 49
0.5
 74
     0
 49
-3.0
 74
     0
  0
LTYPE
  5
46
330
5
100
AcDbSymbolTableRecord
100
AcDbLinetypeTableRecord
  2
ACAD_ISO07W100
 70
     0
  3
. . . . . . . . . . . . . . . .
 72
    65
 73
     2
 40
3.5
 49
0.5
 74
     0
 49
-3.0
 74
     0
  0
LTYPE
  5
47
330
5
100
AcDbSymbolTableRecord
100
AcDbLinetypeTableRecord
  2
ACAD_ISO08W100
 70
     0
  3
____ __ ____ __ ____ __ ____ __
 72
    65
 73
     4
 40
36.0
 49
24.0
 74
     0
 49
-3.0
 74
     0
 49
6.0
 74
     0
 49
-3.0
 74
     0
  0
LTYPE
  5
48
330
5
100
AcDbSymbolTableRecord
100
AcDbLinetypeTableRecord
  2
ACAD_ISO09W100
 70
     0
  3
____ __ __ ____ __ __ ____ __ _
 72
    65
 73
     6
 40
45.0
 49
24.0
 74
     0
 49
-3.0
 74
     0
 49
6.0
 74
     0
 49
-3.0
 74
     0
 49
6.0
 74
     0
 49
-3.0
 74
     0
  0
LTYPE
  5
49
330
5
100
AcDbSymbolTableRecord
100
AcDbLinetypeTableRecord
  2
ACAD_ISO10W100
 70
     0
  3
__ . __ . __ . __ . __ . __ . _
 72
    65
 73
     4
 40
18.5
 49
12.0
 74
     0
 49
-3.0
 74
     0
 49
0.5
 74
     0
 49
-3.0
 74
     0
  0
LTYPE
  5
4A
330
5
100
AcDbSymbolTableRecord
100
AcDbLinetypeTableRecord
  2
ACAD_ISO11W100
 70
     0
  3
__ __ . __ __ . __ __ . __ __ .
 72
    65
 73
     6
 40
33.5
 49
12.0
 74
     0
 49
-3.0
 74
     0
 49
12.0
 74
     0
 49
-3.0
 74
     0
 49
0.5
 74
     0
 49
-3.0
 74
     0
  0
LTYPE
  5
4B
330
5
100
AcDbSymbolTableRecord
100
AcDbLinetypeTableRecord
  2
ACAD_ISO12W100
 70
     0
  3
__ . . __ . . __ . . __ . . __ 
 72
    65
 73
     6
 40
22.0
 49
12.0
 74
     0
 49
-3.0
 74
     0
 49
0.5
 74
     0
 49
-3.0
 74
     0
 49
0.5
 74
     0
 49
-3.0
 74
     0
  0
LTYPE
  5
4C
330
5
100
AcDbSymbolTableRecord
100
AcDbLinetypeTableRecord
  2
ACAD_ISO13W100
 70
     0
  3
__ __ . . __ __ . . __ __ . . _
 72
    65
 73
     6
 40
33.5
 49
12.0
 74
     0
 49
-3.0
 74
     0
 49
12.0
 74
     0
 49
-3.0
 74
     0
 49
0.5
 74
     0
 49
-3.0
 74
     0
  0
LTYPE
  5
4D
330
5
100
AcDbSymbolTableRecord
100
AcDbLinetypeTableRecord
  2
ACAD_ISO14W100
 70
     0
  3
__ . . . __ . . . __ . . . __ .
 72
    65
 73
     6
 40
22.0
 49
12.0
 74
     0
 49
-3.0
 74
     0
 49
0.5
 74
     0
 49
-3.0
 74
     0
 49
0.5
 74
     0
 49
-3.0
 74
     0
  0
LTYPE
  5
4E
330
5
100
AcDbSymbolTableRecord
100
AcDbLinetypeTableRecord
  2
ACAD_ISO15W100
 70
     0
  3
__ __ . . . __ __ . . . __ __ .
 72
    65
 73
     6
 40
33.5
 49
12.0
 74
     0
 49
-3.0
 74
     0
 49
12.0
 74
     0
 49
-3.0
 74
     0
 49
0.5
 74
     0
 49
-3.0
 74
     0
  0
ENDTAB
  0
TABLE
  2
LAYER
  5
2
330
0
100
AcDbSymbolTable
 70
     3
  0
LAYER
  5
10
330
2
100
AcDbSymbolTableRecord
100
AcDbLayerTableRecord
  2
0
 70
     0
 62
     7
  6
Continuous
370
    -3
390
F
  0
LAYER
  5
4F
330
2
100
AcDbSymbolTableRecord
100
AcDbLayerTableRecord
  2
ENCODER
 70
     0
 62
     1
  6
Continuous
370
    -3
390
F
  0
LAYER
  5
50
330
2
100
AcDbSymbolTableRecord
100
AcDbLayerTableRecord
  2
MOTOR
 70
     0
 62
     7
  6
Continuous
370
    -3
390
F
  0
ENDTAB
  0
TABLE
  2
STYLE
  5
3
330
0
100
AcDbSymbolTable
 70
     5
  0
STYLE
  5
11
330
3
100
AcDbSymbolTableRecord
100
AcDbTextStyleTableRecord
  2
Standard
 70
     0
 40
0.0
 41
1.0
 50
0.0
 71
     0
 42
1.249999999999999
  3
txt
  4

  0
STYLE
  5
51
330
3
100
AcDbSymbolTableRecord
100
AcDbTextStyleTableRecord
  2
ITALIC
 70
     0
 40
0.0
 41
1.0
 50
0.0
 71
     0
 42
1.249999999999999
  3
ITALIC
  4

  0
STYLE
  5
52
330
3
100
AcDbSymbolTableRecord
100
AcDbTextStyleTableRecord
  2
SIMPLEX
 70
     0
 40
0.0
 41
1.0
 50
0.0
 71
     0
 42
1.249999999999999
  3
SIMPLEX
  4

  0
STYLE
  5
53
330
3
100
AcDbSymbolTableRecord
100
AcDbTextStyleTableRecord
  2
COMPLEX
 70
     0
 40
0.0
 41
1.0
 50
0.0
 71
     0
 42
1.249999999999999
  3
COMPLEX
  4

  0
STYLE
  5
9C
330
3
100
AcDbSymbolTableRecord
100
AcDbTextStyleTableRecord
  2
ARIAL
 70
     0
 40
0.0
 41
1.0
 50
0.0
 71
     0
 42
1.249999999999999
  3
ARIAL.TTF
  4

1001
ACAD
1000
Arial
1071
        0
  0
ENDTAB
  0
TABLE
  2
VIEW
  5
6
330
0
100
AcDbSymbolTable
 70
     0
  0
ENDTAB
  0
TABLE
  2
UCS
  5
7
330
0
100
AcDbSymbolTable
 70
     0
  0
ENDTAB
  0
TABLE
  2
APPID
  5
9
330
0
100
AcDbSymbolTable
 70
     1
  0
APPID
  5
12
330
9
100
AcDbSymbolTableRecord
100
AcDbRegAppTableRecord
  2
ACAD
 70
     0
  0
ENDTAB
  0
TABLE
  2
DIMSTYLE
  5
A
330
0
100
AcDbSymbolTable
 70
     1
100
AcDbDimStyleTable
 71
     0
  0
DIMSTYLE
105
27
330
A
100
AcDbSymbolTableRecord
100
AcDbDimStyleTableRecord
  2
Standard
 70
     0
340
11
  0
ENDTAB
  0
TABLE
  2
BLOCK_RECORD
  5
1
330
0
100
AcDbSymbolTable
 70
     3
  0
BLOCK_RECORD
  5
1F
330
1
100
AcDbSymbolTableRecord
100
AcDbBlockTableRecord
  2
*Model_Space
340
22
  0
BLOCK_RECORD
  5
1B
330
1
100
AcDbSymbolTableRecord
100
AcDbBlockTableRecord
  2
*Paper_Space
340
1E
  0
BLOCK_RECORD
  5
23
330
1
100
AcDbSymbolTableRecord
100
AcDbBlockTableRecord
  2
*Paper_Space0
340
26
  0
BLOCK_RECORD
  5
5E
330
1
100
AcDbSymbolTableRecord
100
AcDbBlockTableRecord
  2
CROSS
340
0
102
{BLKREFS
331
65
331
6B
331
70
331
B8
331
BD
331
EA
102
}
  0
BLOCK_RECORD
  5
D1
330
1
100
AcDbSymbolTableRecord
100
AcDbBlockTableRecord
  2
LONGARROW
340
0
102
{BLKREFS
331
D6
331
D7
331
DD
331
DE
331
E4
331
E5
331
F1
331
F2
331
F8
331
F9
331
FF
331
100
331
106
331
107
331
10D
331
10E
331
114
331
115
331
11B
331
11C
331
11D
331
120
331
124
102
}
  0
ENDTAB
  0
ENDSEC
  0
SECTION
  2
BLOCKS
  0
BLOCK
  5
20
330
1F
100
AcDbEntity
  8
0
100
AcDbBlockBegin
  2
*Model_Space
 70
     0
 10
0.0
 20
0.0
 30
0.0
  3
*Model_Space
  1

  0
ENDBLK
  5
21
330
1F
100
AcDbEntity
  8
0
100
AcDbBlockEnd
  0
BLOCK
  5
1C
330
1B
100
AcDbEntity
 67
     1
  8
0
100
AcDbBlockBegin
  2
*Paper_Space
 70
     0
 10
0.0
 20
0.0
 30
0.0
  3
*Paper_Space
  1

  0
ENDBLK
  5
1D
330
1B
100
AcDbEntity
 67
     1
  8
0
100
AcDbBlockEnd
  0
BLOCK
  5
24
330
23
100
AcDbEntity
  8
0
100
AcDbBlockBegin
  2
*Paper_Space0
 70
     0
 10
0.0
 20
0.0
 30
0.0
  3
*Paper_Space0
  1

  0
ENDBLK
  5
25
330
23
100
AcDbEntity
  8
0
100
AcDbBlockEnd
  0
BLOCK
  5
63
330
5E
100
AcDbEntity
  8
0
100
AcDbBlockBegin
  2
CROSS
 70
     0
 10
0.0
 20
0.0
 30
0.0
  3
CROSS
  1

  0
LINE
  5
5F
330
5E
100
AcDbEntity
  8
ENCODER
  6
Continuous
 62
     0
100
AcDbLine
 10
-12.7
 20
0.0
 30
0.0
 11
12.7
 21
0.0
 31
0.0
  0
LINE
  5
60
330
5E
100
AcDbEntity
  8
ENCODER
  6
Continuous
 62
     0
100
AcDbLine
 10
0.0
 20
-12.7
 30
0.0
 11
0.0
 21
12.7
 31
0.0
  0
LINE
  5
61
330
5E
100
AcDbEntity
  8
ENCODER
  6
Continuous
 62
     0
100
AcDbLine
 10
12.7
 20
0.0
 30
0.0
 11
-12.7
 21
0.0
 31
0.0
  0
LINE
  5
62
330
5E
100
AcDbEntity
  8
ENCODER
  6
Continuous
 62
     0
100
AcDbLine
 10
0.0
 20
12.7
 30
0.0
 11
0.0
 21
-12.7
 31
0.0
  0
ENDBLK
  5
64
330
5E
100
AcDbEntity
  8
0
100
AcDbBlockEnd
  0
BLOCK
  5
D4
330
D1
100
AcDbEntity
  8
0
100
AcDbBlockBegin
  2
LONGARROW
 70
     0
 10
0.0
 20
0.0
 30
0.0
  3
LONGARROW
  1

  0
LWPOLYLINE
  5
D2
102
{ACAD_REACTORS
330
D3
102
}
330
D1
100
AcDbEntity
  8
ENCODER
  6
Continuous
 62
     0
100
AcDbPolyline
 90
        3
 70
     1
 43
0.0
 10
0.0
 20
0.0
 10
50.8
 20
-6.349999999999999
 10
50.8
 20
6.349999999999999
  0
HATCH
  5
D3
330
D1
100
AcDbEntity
  8
ENCODER
  6
Continuous
 62
     0
100
AcDbHatch
 10
0.0
 20
0.0
 30
0.0
210
0.0
220
0.0
230
1.0
  2
SOLID
 70
     1
 71
     1
 91
        1
 92
        1
 93
        3
 72
     1
 10
0.0
 20
0.0
 11
50.8
 21
-6.349999999999999
 72
     1
 10
50.8
 20
-6.349999999999999
 11
50.8
 21
6.349999999999999
 72
     1
 10
50.8
 20
6.349999999999999
 11
0.0
 21
0.0
 97
        1
330
D2
 75
     0
 76
     1
 98
        1
 10
0.0
 20
0.0
  0
ENDBLK
  5
D5
330
D1
100
AcDbEntity
  8
0
100
AcDbBlockEnd
  0
ENDSEC
  0
SECTION
  2
ENTITIES
  0
LINE
  5
54
330
1F
100
AcDbEntity
  8
MOTOR
  6
Continuous
100
AcDbLine
 10
6.45625344036989
 20
41.2
 30
0.0
 11
6.50000000000002
 21
41.2
 31
0.0
  0
ARC
  5
55
330
1F
100
AcDbEntity
  8
MOTOR
  6
Continuous
100
AcDbCircle
 10
8.000000000000021
 20
40.0
 30
0.0
 40
2.369999999999999
100
AcDbArc
 50
210.4196217153694
 51
149.5803782846306
  0
LINE
  5
56
330
1F
100
AcDbEntity
  8
MOTOR
  6
Continuous
100
AcDbLine
 10
5.00000000000002
 20
38.79999999999999
 30
0.0
 11
5.944675161366939
 21
38.79999999999999
 31
0.0
  0
LINE
  5
57
330
1F
100
AcDbEntity
  8
MOTOR
  6
Continuous
100
AcDbLine
 10
5.00000000000002
 20
41.2
 30
0.0
 11
5.988772383589162
 21
41.2
 31
0.0
  0
ARC
  5
58
330
1F
100
AcDbEntity
  8
MOTOR
  6
Continuous
 62
     7
100
AcDbCircle
 10
49.50000000000002
 20
42.5
 30
0.0
 40
1.449999999999999
100
AcDbArc
 50
120.4503140213559
 51
329.5496859786442
  0
ARC
  5
59
330
1F
100
AcDbEntity
  8
MOTOR
  6
Continuous
 62
     7
100
AcDbCircle
 10
14.50000000000002
 20
42.5
 30
0.0
 40
1.449999999999999
100
AcDbArc
 50
210.4503140213554
 51
59.54968597864423
  0
LINE
  5
5A
330
1F
100
AcDbEntity
  8
MOTOR
  6
CENTER
 62
     7
100
AcDbLine
 10
23.19062500000002
 20
35.0
 30
0.0
 11
31.33750000000002
 21
35.0
 31
0.0
  0
LINE
  5
5B
330
1F
100
AcDbEntity
  8
MOTOR
  6
CENTER
 62
     7
100
AcDbLine
 10
20.80937500000002
 20
35.0
 30
0.0
 11
12.66250000000002
 21
35.0
 31
0.0
  0
LINE
  5
5C
330
1F
100
AcDbEntity
  8
MOTOR
  6
CENTER
 62
     7
100
AcDbLine
 10
22.00000000000001
 20
36.190625
 30
0.0
 11
22.00000000000001
 21
44.33749999999999
 31
0.0
  0
LINE
  5
5D
330
1F
100
AcDbEntity
  8
MOTOR
  6
CENTER
 62
     7
100
AcDbLine
 10
22.00000000000001
 20
33.80937499999999
 30
0.0
 11
22.00000000000002
 21
25.66249999999999
 31
0.0
  0
INSERT
  5
65
330
1F
100
AcDbEntity
  8
MOTOR
  6
CENTER
 62
     7
100
AcDbBlockReference
  2
CROSS
 10
22.00000000000001
 20
35.0
 30
0.0
 41
0.03125
 42
0.03125
  0
CIRCLE
  5
66
330
1F
100
AcDbEntity
  8
MOTOR
  6
Continuous
 62
     7
100
AcDbCircle
 10
22.00000000000001
 20
35.0
 30
0.0
 40
2.249999999999999
  0
LINE
  5
67
330
1F
100
AcDbEntity
  8
MOTOR
  6
CENTER
 62
     7
100
AcDbLine
 10
32.19062500000002
 20
35.0
 30
0.0
 11
39.85472092687434
 21
35.0
 31
0.0
  0
LINE
  5
68
330
1F
100
AcDbEntity
  8
MOTOR
  6
CENTER
 62
     7
100
AcDbLine
 10
29.80937500000002
 20
35.0
 30
0.0
 11
22.1452790731257
 21
35.0
 31
0.0
  0
LINE
  5
69
330
1F
100
AcDbEntity
  8
MOTOR
  6
CENTER
 62
     7
100
AcDbLine
 10
31.00000000000002
 20
36.190625
 30
0.0
 11
31.00000000000001
 21
43.85472092687431
 31
0.0
  0
LINE
  5
6A
330
1F
100
AcDbEntity
  8
MOTOR
  6
CENTER
 62
     7
100
AcDbLine
 10
31.00000000000002
 20
33.80937499999999
 30
0.0
 11
31.00000000000003
 21
26.14527907312568
 31
0.0
  0
INSERT
  5
6B
330
1F
100
AcDbEntity
  8
MOTOR
  6
CENTER
 62
     7
100
AcDbBlockReference
  2
CROSS
 10
31.00000000000002
 20
35.0
 30
0.0
 41
0.03125
 42
0.03125
  0
LINE
  5
6C
330
1F
100
AcDbEntity
  8
MOTOR
  6
CENTER
 62
     7
100
AcDbLine
 10
43.19062500000001
 20
35.0
 30
0.0
 11
51.49319415042096
 21
35.0
 31
0.0
  0
LINE
  5
6D
330
1F
100
AcDbEntity
  8
MOTOR
  6
CENTER
 62
     7
100
AcDbLine
 10
40.809375
 20
35.0
 30
0.0
 11
32.50680584957907
 21
35.0
 31
0.0
  0
LINE
  5
6E
330
1F
100
AcDbEntity
  8
MOTOR
  6
CENTER
 62
     7
100
AcDbLine
 10
42.00000000000001
 20
36.190625
 30
0.0
 11
42.0
 21
44.49319415042094
 31
0.0
  0
LINE
  5
6F
330
1F
100
AcDbEntity
  8
MOTOR
  6
CENTER
 62
     7
100
AcDbLine
 10
42.00000000000001
 20
33.80937499999999
 30
0.0
 11
42.00000000000001
 21
25.50680584957905
 31
0.0
  0
INSERT
  5
70
330
1F
100
AcDbEntity
  8
MOTOR
  6
CENTER
 62
     7
100
AcDbBlockReference
  2
CROSS
 10
42.00000000000001
 20
35.0
 30
0.0
 41
0.03125
 42
0.03125
  0
CIRCLE
  5
71
330
1F
100
AcDbEntity
  8
MOTOR
  6
Continuous
 62
     7
100
AcDbCircle
 10
42.00000000000001
 20
35.0
 30
0.0
 40
3.0
  0
CIRCLE
  5
72
330
1F
100
AcDbEntity
  8
MOTOR
  6
Continuous
 62
     7
100
AcDbCircle
 10
42.00000000000001
 20
35.0
 30
0.0
 40
0.9999999999999998
  0
LINE
  5
73
330
1F
100
AcDbEntity
  8
MOTOR
  6
Continuous
 62
     7
100
AcDbLine
 10
12.00000000000001
 20
44.99999999999999
 30
0.0
 11
52.00000000000001
 21
45.0
 31
0.0
  0
LINE
  5
74
330
1F
100
AcDbEntity
  8
MOTOR
  6
Continuous
 62
     7
100
AcDbLine
 10
59.00000000000005
 20
44.99999999999999
 30
0.0
 11
59.00000000000005
 21
41.19999999999997
 31
0.0
  0
LINE
  5
75
330
1F
100
AcDbEntity
  8
MOTOR
  6
Continuous
 62
     7
100
AcDbLine
 10
52.00000000000002
 20
24.99999999999997
 30
0.0
 11
12.00000000000002
 21
24.99999999999997
 31
0.0
  0
LINE
  5
76
330
1F
100
AcDbEntity
  8
MOTOR
  6
Continuous
 62
     7
100
AcDbLine
 10
12.00000000000001
 20
25.0
 30
0.0
 11
12.00000000000001
 21
45.0
 31
0.0
  0
LINE
  5
77
330
1F
100
AcDbEntity
  8
MOTOR
  6
Continuous
 62
     7
100
AcDbLine
 10
15.23484692283497
 20
43.75
 30
0.0
 11
48.76515307716505
 21
43.75
 31
0.0
  0
LINE
  5
78
330
1F
100
AcDbEntity
  8
MOTOR
  6
Continuous
 62
     7
100
AcDbLine
 10
13.25000000000002
 20
28.23484692283495
 30
0.0
 11
13.25000000000002
 21
41.76515307716505
 31
0.0
  0
ARC
  5
79
330
1F
100
AcDbEntity
  8
MOTOR
  6
Continuous
 62
     7
100
AcDbCircle
 10
14.50000000000002
 20
27.5
 30
0.0
 40
1.449999999999999
100
AcDbArc
 50
300.4503140213565
 51
149.5496859786443
  0
CIRCLE
  5
7A
330
1F
100
AcDbEntity
  8
MOTOR
  6
Continuous
 62
     7
100
AcDbCircle
 10
14.50000000000002
 20
27.5
 30
0.0
 40
0.9999999999999998
  0
CIRCLE
  5
7B
330
1F
100
AcDbEntity
  8
MOTOR
  6
Continuous
 62
     7
100
AcDbCircle
 10
14.50000000000002
 20
42.5
 30
0.0
 40
0.9999999999999998
  0
CIRCLE
  5
7C
330
1F
100
AcDbEntity
  8
MOTOR
  6
Continuous
 62
     7
100
AcDbCircle
 10
49.50000000000002
 20
42.5
 30
0.0
 40
0.9999999999999998
  0
CIRCLE
  5
7D
330
1F
100
AcDbEntity
  8
MOTOR
  6
Continuous
 62
     7
100
AcDbCircle
 10
49.50000000000002
 20
27.5
 30
0.0
 40
0.9999999999999998
  0
LINE
  5
7E
330
1F
100
AcDbEntity
  8
MOTOR
  6
Continuous
 62
     7
100
AcDbLine
 10
48.76515307716507
 20
26.25
 30
0.0
 11
15.23484692283497
 21
26.25
 31
0.0
  0
ARC
  5
7F
330
1F
100
AcDbEntity
  8
MOTOR
  6
Continuous
 62
     7
100
AcDbCircle
 10
49.50000000000002
 20
27.5
 30
0.0
 40
1.449999999999999
100
AcDbArc
 50
30.45031402135577
 51
239.5496859786445
  0
LINE
  5
80
330
1F
100
AcDbEntity
  8
MOTOR
  6
Continuous
 62
     7
100
AcDbLine
 10
50.75000000000002
 20
41.76515307716504
 30
0.0
 11
50.75000000000002
 21
28.23484692283495
 31
0.0
  0
ARC
  5
81
330
1F
100
AcDbEntity
  8
MOTOR
  6
DOT
 62
     7
100
AcDbCircle
 10
31.00000000000002
 20
35.0
 30
0.0
 40
8.634958019585274
100
AcDbArc
 50
126.092771548989
 51
233.9072284510109
  0
ARC
  5
82
330
1F
100
AcDbEntity
  8
MOTOR
  6
Continuous
 62
     7
100
AcDbCircle
 10
22.00000000000001
 20
35.0
 30
0.0
 40
7.999999999999999
100
AcDbArc
 50
60.71531677763702
 51
299.284683222363
  0
ARC
  5
83
330
1F
100
AcDbEntity
  8
MOTOR
  6
Continuous
 62
     7
100
AcDbCircle
 10
22.00000000000001
 20
35.0
 30
0.0
 40
5.250000000000001
100
AcDbArc
 50
54.96844323679934
 51
305.0315567632007
  0
ARC
  5
84
330
1F
100
AcDbEntity
  8
MOTOR
  6
Continuous
 62
     7
100
AcDbCircle
 10
31.00000000000002
 20
35.0
 30
0.0
 40
7.37
100
AcDbArc
 50
144.3173223085063
 51
215.6826776914936
  0
ARC
  5
85
330
1F
100
AcDbEntity
  8
MOTOR
  6
Continuous
 62
     7
100
AcDbCircle
 10
31.00000000000002
 20
35.0
 30
0.0
 40
8.634958019585274
100
AcDbArc
 50
50.8752781614217
 51
126.092771548989
  0
ARC
  5
86
330
1F
100
AcDbEntity
  8
MOTOR
  6
Continuous
 62
     7
100
AcDbCircle
 10
31.00000000000002
 20
35.0
 30
0.0
 40
7.37
100
AcDbArc
 50
52.08804312762445
 51
122.5198377868321
  0
ARC
  5
87
330
1F
100
AcDbEntity
  8
MOTOR
  6
Continuous
 62
     7
100
AcDbCircle
 10
31.00000000000002
 20
35.0
 30
0.0
 40
8.634958019585274
100
AcDbArc
 50
233.9072284510109
 51
309.1247218385782
  0
ARC
  5
88
330
1F
100
AcDbEntity
  8
MOTOR
  6
Continuous
 62
     7
100
AcDbCircle
 10
22.00000000000001
 20
35.0
 30
0.0
 40
7.999999999999999
100
AcDbArc
 50
299.284683222363
 51
309.0312194055068
  0
ARC
  5
89
330
1F
100
AcDbEntity
  8
MOTOR
  6
Continuous
 62
     7
100
AcDbCircle
 10
42.00000000000001
 20
35.0
 30
0.0
 40
8.699999999999997
100
AcDbArc
 50
230.3515949742982
 51
129.6484050257017
  0
ARC
  5
8A
330
1F
100
AcDbEntity
  8
MOTOR
  6
DOT
 62
     7
100
AcDbCircle
 10
31.00000000000002
 20
35.0
 30
0.0
 40
8.634958019585274
100
AcDbArc
 50
309.1247218385782
 51
50.8752781614217
  0
ARC
  5
8B
330
1F
100
AcDbEntity
  8
MOTOR
  6
DOT
 62
     7
100
AcDbCircle
 10
22.00000000000001
 20
35.0
 30
0.0
 40
5.250000000000001
100
AcDbArc
 50
305.0315567632007
 51
54.96844323679933
  0
ARC
  5
8C
330
1F
100
AcDbEntity
  8
MOTOR
  6
Continuous
 62
     7
100
AcDbCircle
 10
31.00000000000002
 20
35.0
 30
0.0
 40
7.37
100
AcDbArc
 50
215.6826776914936
 51
216.4602283149569
  0
ARC
  5
8E
102
{ACAD_REACTORS
330
8D
102
}
330
1F
100
AcDbEntity
  8
MOTOR
  6
DOT
 62
     7
100
AcDbCircle
 10
42.00000000000001
 20
35.0
 30
0.0
 40
8.699999999999997
100
AcDbArc
 50
129.6484050257017
 51
138.0605115671072
  0
ARC
  5
8F
102
{ACAD_REACTORS
330
8D
102
}
330
1F
100
AcDbEntity
  8
MOTOR
  6
DOT
 62
     7
100
AcDbCircle
 10
42.00000000000001
 20
35.0
 30
0.0
 40
8.699999999999997
100
AcDbArc
 50
138.0605115671072
 51
230.3515949742982
  0
ARC
  5
90
330
1F
100
AcDbEntity
  8
MOTOR
  6
Continuous
 62
     7
100
AcDbCircle
 10
22.00000000000001
 20
35.0
 30
0.0
 40
7.999999999999999
100
AcDbArc
 50
50.96878059449315
 51
60.71531677763701
  0
ARC
  5
91
330
1F
100
AcDbEntity
  8
MOTOR
  6
Continuous
 62
     7
100
AcDbCircle
 10
31.00000000000002
 20
35.0
 30
0.0
 40
7.37
100
AcDbArc
 50
122.5198377868321
 51
143.539771685043
  0
ARC
  5
92
330
1F
100
AcDbEntity
  8
MOTOR
  6
DOT
 62
     7
100
AcDbCircle
 10
22.00000000000001
 20
35.0
 30
0.0
 40
7.999999999999999
100
AcDbArc
 50
309.0312194055068
 51
50.96878059449313
  0
ARC
  5
93
330
1F
100
AcDbEntity
  8
MOTOR
  6
Continuous
 62
     7
100
AcDbCircle
 10
31.00000000000002
 20
35.0
 30
0.0
 40
7.37
100
AcDbArc
 50
237.4801622131678
 51
52.08804312762442
  0
LINE
  5
95
102
{ACAD_REACTORS
330
94
102
}
330
1F
100
AcDbEntity
  8
ENCODER
  6
Continuous
100
AcDbLine
 10
15.97000000000001
 20
43.73207151756878
 30
0.0
 11
26.01388059701494
 21
43.73207151756878
 31
0.0
  0
LINE
  5
96
102
{ACAD_REACTORS
330
94
102
}
330
1F
100
AcDbEntity
  8
ENCODER
  6
Continuous
100
AcDbLine
 10
26.01388059701494
 20
43.73207151756878
 30
0.0
 11
26.01388059701494
 21
42.23207151756878
 31
0.0
  0
LINE
  5
97
102
{ACAD_REACTORS
330
94
102
}
330
1F
100
AcDbEntity
  8
ENCODER
  6
Continuous
100
AcDbLine
 10
26.01388059701494
 20
42.23207151756878
 30
0.0
 11
15.97000000000001
 21
42.23207151756878
 31
0.0
  0
LINE
  5
98
102
{ACAD_REACTORS
330
94
102
}
330
1F
100
AcDbEntity
  8
ENCODER
  6
Continuous
100
AcDbLine
 10
15.97000000000001
 20
42.23207151756878
 30
0.0
 11
15.97000000000001
 21
43.73207151756878
 31
0.0
  0
LINE
  5
99
102
{ACAD_REACTORS
330
94
102
}
330
1F
100
AcDbEntity
  8
ENCODER
  6
Continuous
100
AcDbLine
 10
20.64194029850748
 20
42.23207151756878
 30
0.0
 11
20.64194029850748
 21
40.73207151756878
 31
0.0
  0
LINE
  5
9A
102
{ACAD_REACTORS
330
94
102
}
330
1F
100
AcDbEntity
  8
ENCODER
  6
Continuous
100
AcDbLine
 10
20.64194029850748
 20
40.73207151756878
 30
0.0
 11
23.34194029850748
 21
40.73207151756878
 31
0.0
  0
LINE
  5
9B
102
{ACAD_REACTORS
330
94
102
}
330
1F
100
AcDbEntity
  8
ENCODER
  6
Continuous
100
AcDbLine
 10
23.34194029850748
 20
40.73207151756878
 30
0.0
 11
23.34194029850748
 21
42.23207151756878
 31
0.0
  0
TEXT
  5
9D
102
{ACAD_REACTORS
330
94
102
}
330
1F
100
AcDbEntity
  8
ENCODER
  6
Continuous
100
AcDbText
 10
18.05104477611942
 20
42.71153934513936
 30
0.0
 40
0.75
  1
left sensor card
  7
ARIAL
100
AcDbText
  0
LINE
  5
9F
102
{ACAD_REACTORS
330
9E
102
}
330
1F
100
AcDbEntity
  8
ENCODER
  6
Continuous
100
AcDbLine
 10
15.99462686567164
 20
26.30277251246901
 30
0.0
 11
26.03850746268657
 21
26.302772512469
 31
0.0
  0
LINE
  5
A0
102
{ACAD_REACTORS
330
9E
102
}
330
1F
100
AcDbEntity
  8
ENCODER
  6
Continuous
100
AcDbLine
 10
26.03850746268657
 20
26.302772512469
 30
0.0
 11
26.03850746268657
 21
27.80277251246899
 31
0.0
  0
LINE
  5
A1
102
{ACAD_REACTORS
330
9E
102
}
330
1F
100
AcDbEntity
  8
ENCODER
  6
Continuous
100
AcDbLine
 10
26.03850746268657
 20
27.80277251246899
 30
0.0
 11
15.99462686567164
 21
27.802772512469
 31
0.0
  0
LINE
  5
A2
102
{ACAD_REACTORS
330
9E
102
}
330
1F
100
AcDbEntity
  8
ENCODER
  6
Continuous
100
AcDbLine
 10
15.99462686567164
 20
27.802772512469
 30
0.0
 11
15.99462686567164
 21
26.30277251246901
 31
0.0
  0
LINE
  5
A3
102
{ACAD_REACTORS
330
9E
102
}
330
1F
100
AcDbEntity
  8
ENCODER
  6
Continuous
100
AcDbLine
 10
20.66656716417911
 20
27.80277251246899
 30
0.0
 11
20.66656716417911
 21
29.302772512469
 31
0.0
  0
LINE
  5
A4
102
{ACAD_REACTORS
330
9E
102
}
330
1F
100
AcDbEntity
  8
ENCODER
  6
Continuous
100
AcDbLine
 10
20.66656716417911
 20
29.30277251246899
 30
0.0
 11
23.36656716417911
 21
29.302772512469
 31
0.0
  0
LINE
  5
A5
102
{ACAD_REACTORS
330
9E
102
}
330
1F
100
AcDbEntity
  8
ENCODER
  6
Continuous
100
AcDbLine
 10
23.3665671641791
 20
29.302772512469
 30
0.0
 11
23.3665671641791
 21
27.80277251246899
 31
0.0
  0
TEXT
  5
A6
102
{ACAD_REACTORS
330
9E
102
}
330
1F
100
AcDbEntity
  8
ENCODER
  6
Continuous
100
AcDbText
 10
17.56522388059695
 20
26.69714461036506
 30
0.0
 40
0.75
  1
right sensor card
  7
ARIAL
100
AcDbText
  0
ARC
  5
A7
330
1F
100
AcDbEntity
  8
ENCODER
  6
Continuous
100
AcDbCircle
 10
22.00000000000001
 20
35.0
 30
0.0
 40
5.349999999999999
100
AcDbArc
 50
54.94900384883447
 51
305.0509961511655
  0
ARC
  5
A8
330
1F
100
AcDbEntity
  8
MOTOR
  6
Continuous
 62
     7
100
AcDbCircle
 10
31.00000000000002
 20
35.0
 30
0.0
 40
7.37
100
AcDbArc
 50
143.539771685043
 51
144.3173223085063
  0
ARC
  5
A9
330
1F
100
AcDbEntity
  8
ENCODER
  6
HIDDEN
100
AcDbCircle
 10
22.00000000000001
 20
35.0
 30
0.0
 40
5.349999999999999
100
AcDbArc
 50
305.0509961511655
 51
54.94900384883448
  0
ARC
  5
AA
330
1F
100
AcDbEntity
  8
MOTOR
  6
Continuous
 62
     7
100
AcDbCircle
 10
31.00000000000002
 20
35.0
 30
0.0
 40
7.37
100
AcDbArc
 50
216.4602283149569
 51
237.4801622131678
  0
LINE
  5
AB
330
1F
100
AcDbEntity
  8
MOTOR
  6
Continuous
100
AcDbLine
 10
8.500000000000019
 20
36.0
 30
0.0
 11
12.00000000000001
 21
36.0268460374238
 31
0.0
  0
LINE
  5
AC
330
1F
100
AcDbEntity
  8
MOTOR
  6
Continuous
100
AcDbLine
 10
8.500000000000019
 20
36.0
 30
0.0
 11
8.500000000000019
 21
34.0
 31
0.0
  0
LINE
  5
AD
330
1F
100
AcDbEntity
  8
MOTOR
  6
Continuous
100
AcDbLine
 10
8.500000000000019
 20
34.0
 30
0.0
 11
12.00000000000001
 21
34.00177141055814
 31
0.0
  0
LWPOLYLINE
  5
AE
330
1F
100
AcDbEntity
  8
MOTOR
  6
Continuous
100
AcDbPolyline
 90
        2
 70
     0
 43
0.0
 10
4.999999999999999
 20
38.79999999999999
 10
4.999999999999999
 20
31.2
  0
LINE
  5
AF
330
1F
100
AcDbEntity
  8
MOTOR
  6
Continuous
100
AcDbLine
 10
6.521253313369892
 20
31.2
 30
0.0
 11
6.56499987300002
 21
31.2
 31
0.0
  0
ARC
  5
B0
330
1F
100
AcDbEntity
  8
MOTOR
  6
Continuous
100
AcDbCircle
 10
8.000000000000021
 20
30.0
 30
0.0
 40
2.369999999999999
100
AcDbArc
 50
210.4196217153694
 51
149.5803782846306
  0
LINE
  5
B1
330
1F
100
AcDbEntity
  8
MOTOR
  6
Continuous
100
AcDbLine
 10
5.06499987300002
 20
28.8
 30
0.0
 11
5.988772383589163
 21
28.8
 31
0.0
  0
LINE
  5
B2
330
1F
100
AcDbEntity
  8
MOTOR
  6
Continuous
100
AcDbLine
 10
5.06499987300002
 20
31.2
 30
0.0
 11
5.988772383589162
 21
31.2
 31
0.0
  0
LWPOLYLINE
  5
B3
330
1F
100
AcDbEntity
  8
MOTOR
  6
Continuous
100
AcDbPolyline
 90
        6
 70
     0
 43
0.0
 10
4.999999999999999
 20
28.8
 10
4.999999999999999
 20
25.0
 10
12.00000000000001
 20
25.0
 10
12.00000000000001
 20
45.0
 10
4.999999999999999
 20
45.0
 10
4.999999999999999
 20
41.2
  0
LINE
  5
B4
330
1F
100
AcDbEntity
  8
MOTOR
  6
CENTER
100
AcDbLine
 10
57.19062500000001
 20
30.0
 30
0.0
 11
59.95750000000001
 21
30.0
 31
0.0
  0
LINE
  5
B5
330
1F
100
AcDbEntity
  8
MOTOR
  6
CENTER
100
AcDbLine
 10
54.80937500000001
 20
30.0
 30
0.0
 11
52.04250000000001
 21
30.0
 31
0.0
  0
LINE
  5
B6
330
1F
100
AcDbEntity
  8
MOTOR
  6
CENTER
100
AcDbLine
 10
56.00000000000001
 20
31.190625
 30
0.0
 11
56.00000000000001
 21
33.9575
 31
0.0
  0
LINE
  5
B7
330
1F
100
AcDbEntity
  8
MOTOR
  6
CENTER
100
AcDbLine
 10
56.00000000000001
 20
28.809375
 30
0.0
 11
56.00000000000001
 21
26.0425
 31
0.0
  0
INSERT
  5
B8
330
1F
100
AcDbEntity
  8
MOTOR
  6
CENTER
100
AcDbBlockReference
  2
CROSS
 10
56.00000000000001
 20
30.0
 30
0.0
 41
0.03125
 42
0.03125
  0
LINE
  5
B9
330
1F
100
AcDbEntity
  8
MOTOR
  6
CENTER
100
AcDbLine
 10
57.19062500000001
 20
40.0
 30
0.0
 11
59.95750000000001
 21
40.0
 31
0.0
  0
LINE
  5
BA
330
1F
100
AcDbEntity
  8
MOTOR
  6
CENTER
100
AcDbLine
 10
54.80937500000001
 20
40.0
 30
0.0
 11
52.04250000000001
 21
40.0
 31
0.0
  0
LINE
  5
BB
330
1F
100
AcDbEntity
  8
MOTOR
  6
CENTER
100
AcDbLine
 10
56.00000000000001
 20
41.190625
 30
0.0
 11
56.00000000000001
 21
43.95749999999999
 31
0.0
  0
LINE
  5
BC
330
1F
100
AcDbEntity
  8
MOTOR
  6
CENTER
100
AcDbLine
 10
56.00000000000001
 20
38.809375
 30
0.0
 11
56.00000000000001
 21
36.0425
 31
0.0
  0
INSERT
  5
BD
330
1F
100
AcDbEntity
  8
MOTOR
  6
CENTER
100
AcDbBlockReference
  2
CROSS
 10
56.00000000000001
 20
40.0
 30
0.0
 41
0.03125
 42
0.03125
  0
LINE
  5
BE
330
1F
100
AcDbEntity
  8
MOTOR
  6
Continuous
100
AcDbLine
 10
57.54374655963015
 20
41.19999999999998
 30
0.0
 11
57.50000000000002
 21
41.19999999999998
 31
0.0
  0
LINE
  5
BF
330
1F
100
AcDbEntity
  8
MOTOR
  6
Continuous
100
AcDbLine
 10
59.00000000000002
 20
38.79999999999997
 30
0.0
 11
57.93530016136694
 21
38.79999999999997
 31
0.0
  0
LINE
  5
C0
330
1F
100
AcDbEntity
  8
MOTOR
  6
Continuous
100
AcDbLine
 10
59.00000000000002
 20
41.19999999999998
 30
0.0
 11
58.02349460581138
 21
41.19999999999998
 31
0.0
  0
LINE
  5
C1
330
1F
100
AcDbEntity
  8
MOTOR
  6
Continuous
 62
     7
100
AcDbLine
 10
52.00000000000001
 20
24.99999999999997
 30
0.0
 11
52.00000000000001
 21
44.99999999999997
 31
0.0
  0
LINE
  5
C2
330
1F
100
AcDbEntity
  8
MOTOR
  6
Continuous
100
AcDbLine
 10
55.50000000000001
 20
35.99999999999997
 30
0.0
 11
52.00000000000001
 21
36.02684603742378
 31
0.0
  0
LINE
  5
C3
330
1F
100
AcDbEntity
  8
MOTOR
  6
Continuous
100
AcDbLine
 10
55.50000000000001
 20
35.99999999999997
 30
0.0
 11
55.50000000000001
 21
33.99999999999998
 31
0.0
  0
LINE
  5
C4
330
1F
100
AcDbEntity
  8
MOTOR
  6
Continuous
100
AcDbLine
 10
55.50000000000001
 20
33.99999999999998
 30
0.0
 11
52.00000000000001
 21
34.00177141055812
 31
0.0
  0
LWPOLYLINE
  5
C5
330
1F
100
AcDbEntity
  8
MOTOR
  6
Continuous
100
AcDbPolyline
 90
        2
 70
     0
 43
0.0
 10
59.00000000000003
 20
38.79999999999997
 10
59.00000000000003
 20
31.19999999999999
  0
LINE
  5
C6
330
1F
100
AcDbEntity
  8
MOTOR
  6
Continuous
100
AcDbLine
 10
57.47874668663015
 20
31.19999999999999
 30
0.0
 11
57.43500012700001
 21
31.19999999999999
 31
0.0
  0
LINE
  5
C7
330
1F
100
AcDbEntity
  8
MOTOR
  6
Continuous
100
AcDbLine
 10
58.93500012700002
 20
28.79999999999998
 30
0.0
 11
58.04381263658179
 21
28.80011254421566
 31
0.0
  0
LINE
  5
C8
330
1F
100
AcDbEntity
  8
MOTOR
  6
Continuous
100
AcDbLine
 10
58.93500012700002
 20
31.19999999999999
 30
0.0
 11
58.02349460581138
 21
31.19999999999999
 31
0.0
  0
LWPOLYLINE
  5
C9
330
1F
100
AcDbEntity
  8
MOTOR
  6
Continuous
100
AcDbPolyline
 90
        6
 70
     0
 43
0.0
 10
59.00000000000003
 20
28.79999999999998
 10
59.00000000000003
 20
24.99999999999997
 10
52.00000000000001
 20
24.99999999999997
 10
52.00000000000001
 20
44.99999999999997
 10
59.00000000000003
 20
44.99999999999997
 10
59.00000000000003
 20
41.19999999999998
  0
LINE
  5
CA
330
1F
100
AcDbEntity
  8
MOTOR
  6
Continuous
 62
     7
100
AcDbLine
 10
59.00000000000003
 20
38.79999999999997
 30
0.0
 11
59.00000000000003
 21
31.19999999999999
 31
0.0
  0
LINE
  5
CB
330
1F
100
AcDbEntity
  8
MOTOR
  6
Continuous
 62
     7
100
AcDbLine
 10
59.00000000000003
 20
28.80175177634015
 30
0.0
 11
59.00000000000003
 21
24.99999999999997
 31
0.0
  0
TEXT
  5
CC
330
1F
100
AcDbEntity
  8
MOTOR
  6
Continuous
100
AcDbText
 10
59.31368949916215
 20
42.10312499999999
 30
0.0
 40
0.79375
  1
5.00 mm
  7
ARIAL
 72
     1
 11
61.25000000000001
 21
42.5
 31
0.0
100
AcDbText
 73
     2
  0
LINE
  5
CD
330
1F
100
AcDbEntity
  8
MOTOR
  6
Continuous
100
AcDbLine
 10
59.73947447312238
 20
45.04240769391945
 30
0.0
 11
62.8375
 21
45.04240769391945
 31
0.0
  0
LINE
  5
CE
330
1F
100
AcDbEntity
  8
MOTOR
  6
Continuous
100
AcDbLine
 10
56.23947447312236
 20
40.04240769391945
 30
0.0
 11
62.8375
 21
40.04240769391945
 31
0.0
  0
LINE
  5
CF
330
1F
100
AcDbEntity
  8
MOTOR
  6
Continuous
100
AcDbLine
 10
61.25
 20
45.04240769391945
 30
0.0
 11
61.25
 21
43.0953125
 31
0.0
  0
LINE
  5
D0
330
1F
100
AcDbEntity
  8
MOTOR
  6
Continuous
100
AcDbLine
 10
61.25
 20
40.04240769391945
 30
0.0
 11
61.25
 21
41.90468749999999
 31
0.0
  0
INSERT
  5
D6
330
1F
100
AcDbEntity
  8
MOTOR
  6
Continuous
100
AcDbBlockReference
  2
LONGARROW
 10
61.25
 20
45.04240769391945
 30
0.0
 41
0.03125
 42
0.03125
 50
270.0
  0
INSERT
  5
D7
330
1F
100
AcDbEntity
  8
MOTOR
  6
Continuous
100
AcDbBlockReference
  2
LONGARROW
 10
61.25
 20
40.04240769391945
 30
0.0
 41
0.03125
 42
0.03125
 50
90.00000000000005
  0
TEXT
  5
D8
330
1F
100
AcDbEntity
  8
MOTOR
  6
Continuous
100
AcDbText
 10
61.77598319086655
 20
34.64553269391945
 30
0.0
 40
0.79375
  1
20.00 mm
  7
ARIAL
 72
     1
 11
63.98914489462448
 21
35.04240769391945
 31
0.0
100
AcDbText
 73
     2
  0
LINE
  5
D9
330
1F
100
AcDbEntity
  8
MOTOR
  6
Continuous
100
AcDbLine
 10
59.73947447312237
 20
45.04240769391945
 30
0.0
 11
65.57664489462448
 21
45.04240769391945
 31
0.0
  0
LINE
  5
DA
330
1F
100
AcDbEntity
  8
MOTOR
  6
Continuous
100
AcDbLine
 10
59.73947447312237
 20
25.04240769391945
 30
0.0
 11
65.5766448946245
 21
25.04240769391945
 31
0.0
  0
LINE
  5
DB
330
1F
100
AcDbEntity
  8
MOTOR
  6
Continuous
100
AcDbLine
 10
63.98914489462447
 20
45.04240769391945
 30
0.0
 11
63.98914489462448
 21
35.63772019391945
 31
0.0
  0
LINE
  5
DC
330
1F
100
AcDbEntity
  8
MOTOR
  6
Continuous
100
AcDbLine
 10
63.98914489462449
 20
25.04240769391945
 30
0.0
 11
63.98914489462448
 21
34.44709519391945
 31
0.0
  0
INSERT
  5
DD
330
1F
100
AcDbEntity
  8
MOTOR
  6
Continuous
100
AcDbBlockReference
  2
LONGARROW
 10
63.98914489462447
 20
45.04240769391945
 30
0.0
 41
0.03125
 42
0.03125
 50
270.0
  0
INSERT
  5
DE
330
1F
100
AcDbEntity
  8
MOTOR
  6
Continuous
100
AcDbBlockReference
  2
LONGARROW
 10
63.98914489462449
 20
25.04240769391945
 30
0.0
 41
0.03125
 42
0.03125
 50
90.00000000000005
  0
TEXT
  5
DF
330
1F
100
AcDbEntity
  8
MOTOR
  6
Continuous
100
AcDbText
 10
59.31368949916215
 20
27.103125
 30
0.0
 40
0.79375
  1
5.00 mm
  7
ARIAL
 72
     1
 11
61.25000000000001
 21
27.5
 31
0.0
100
AcDbText
 73
     2
  0
LINE
  5
E0
330
1F
100
AcDbEntity
  8
MOTOR
  6
Continuous
100
AcDbLine
 10
56.17447460012235
 20
30.04240769391945
 30
0.0
 11
62.88944741858653
 21
30.04240769391945
 31
0.0
  0
LINE
  5
E1
330
1F
100
AcDbEntity
  8
MOTOR
  6
Continuous
100
AcDbLine
 10
58.30348709293265
 20
25.04240769391945
 30
0.0
 11
62.88944741858653
 21
25.04240769391945
 31
0.0
  0
LINE
  5
E2
330
1F
100
AcDbEntity
  8
MOTOR
  6
Continuous
100
AcDbLine
 10
61.30194741858653
 20
30.04240769391945
 30
0.0
 11
61.30194741858653
 21
28.0953125
 31
0.0
  0
LINE
  5
E3
330
1F
100
AcDbEntity
  8
MOTOR
  6
Continuous
100
AcDbLine
 10
61.30194741858653
 20
25.04240769391945
 30
0.0
 11
61.30194741858653
 21
26.9046875
 31
0.0
  0
INSERT
  5
E4
330
1F
100
AcDbEntity
  8
MOTOR
  6
Continuous
100
AcDbBlockReference
  2
LONGARROW
 10
61.30194741858653
 20
30.04240769391945
 30
0.0
 41
0.03125
 42
0.03125
 50
270.0
  0
INSERT
  5
E5
330
1F
100
AcDbEntity
  8
MOTOR
  6
Continuous
100
AcDbBlockReference
  2
LONGARROW
 10
61.30194741858653
 20
25.04240769391945
 30
0.0
 41
0.03125
 42
0.03125
 50
90.00000000000005
  0
LINE
  5
E6
330
1F
100
AcDbEntity
  8
MOTOR
  6
CENTER
100
AcDbLine
 10
9.19062500000002
 20
30.0
 30
0.0
 11
11.95750000000001
 21
30.0
 31
0.0
  0
LINE
  5
E7
330
1F
100
AcDbEntity
  8
MOTOR
  6
CENTER
100
AcDbLine
 10
6.80937500000002
 20
30.0
 30
0.0
 11
4.042500000000021
 21
30.0
 31
0.0
  0
LINE
  5
E8
330
1F
100
AcDbEntity
  8
MOTOR
  6
CENTER
100
AcDbLine
 10
8.000000000000019
 20
31.190625
 30
0.0
 11
8.000000000000015
 21
33.9575
 31
0.0
  0
LINE
  5
E9
330
1F
100
AcDbEntity
  8
MOTOR
  6
CENTER
100
AcDbLine
 10
8.000000000000021
 20
28.809375
 30
0.0
 11
8.000000000000024
 21
26.0425
 31
0.0
  0
INSERT
  5
EA
330
1F
100
AcDbEntity
  8
MOTOR
  6
CENTER
100
AcDbBlockReference
  2
CROSS
 10
8.000000000000021
 20
30.0
 30
0.0
 41
0.03125
 42
0.03125
  0
LINE
  5
EB
330
1F
100
AcDbEntity
  8
MOTOR
  6
Continuous
100
AcDbLine
 10
52.00000000000001
 20
45.0
 30
0.0
 11
52.00000000000001
 21
24.99999999999997
 31
0.0
  0
TEXT
  5
EC
330
1F
100
AcDbEntity
  8
MOTOR
  6
Continuous
100
AcDbText
 10
29.78683829624207
 20
18.25312499999997
 30
0.0
 40
0.79375
  1
54.00 mm
  7
ARIAL
 72
     1
 11
32.00000000000001
 21
18.64999999999997
 31
0.0
100
AcDbText
 73
     2
  0
LINE
  5
ED
330
1F
100
AcDbEntity
  8
MOTOR
  6
Continuous
100
AcDbLine
 10
59.00000000000003
 20
24.20624999999997
 30
0.0
 11
59.00000000000003
 21
17.06249999999997
 31
0.0
  0
LINE
  5
EE
330
1F
100
AcDbEntity
  8
MOTOR
  6
Continuous
100
AcDbLine
 10
4.999999999999999
 20
24.20625
 30
0.0
 11
4.999999999999999
 21
17.06249999999997
 31
0.0
  0
LINE
  5
EF
330
1F
100
AcDbEntity
  8
MOTOR
  6
Continuous
100
AcDbLine
 10
59.00000000000003
 20
18.64999999999997
 30
0.0
 11
35.31974266208709
 21
18.64999999999997
 31
0.0
  0
LINE
  5
F0
330
1F
100
AcDbEntity
  8
MOTOR
  6
Continuous
100
AcDbLine
 10
4.999999999999999
 20
18.64999999999997
 30
0.0
 11
28.68025733791292
 21
18.64999999999997
 31
0.0
  0
INSERT
  5
F1
330
1F
100
AcDbEntity
  8
MOTOR
  6
Continuous
100
AcDbBlockReference
  2
LONGARROW
 10
59.00000000000003
 20
18.64999999999997
 30
0.0
 41
0.03125
 42
0.03125
 50
180.0
  0
INSERT
  5
F2
330
1F
100
AcDbEntity
  8
MOTOR
  6
Continuous
100
AcDbBlockReference
  2
LONGARROW
 10
4.999999999999999
 20
18.64999999999997
 30
0.0
 41
0.03125
 42
0.03125
  0
TEXT
  5
F3
330
1F
100
AcDbEntity
  8
MOTOR
  6
Continuous
100
AcDbText
 10
29.78683829624207
 20
20.803125
 30
0.0
 40
0.79375
  1
40.00 mm
  7
ARIAL
 72
     1
 11
32.00000000000002
 21
21.2
 31
0.0
100
AcDbText
 73
     2
  0
LINE
  5
F4
330
1F
100
AcDbEntity
  8
MOTOR
  6
Continuous
100
AcDbLine
 10
52.00000000000001
 20
24.20624999999998
 30
0.0
 11
52.00000000000001
 21
19.6125
 31
0.0
  0
LINE
  5
F5
330
1F
100
AcDbEntity
  8
MOTOR
  6
Continuous
100
AcDbLine
 10
12.00000000000001
 20
24.20625
 30
0.0
 11
12.00000000000001
 21
19.6125
 31
0.0
  0
LINE
  5
F6
330
1F
100
AcDbEntity
  8
MOTOR
  6
Continuous
100
AcDbLine
 10
52.00000000000001
 20
21.2
 30
0.0
 11
35.3197426620871
 21
21.2
 31
0.0
  0
LINE
  5
F7
330
1F
100
AcDbEntity
  8
MOTOR
  6
Continuous
100
AcDbLine
 10
12.00000000000001
 20
21.2
 30
0.0
 11
28.68025733791293
 21
21.2
 31
0.0
  0
INSERT
  5
F8
330
1F
100
AcDbEntity
  8
MOTOR
  6
Continuous
100
AcDbBlockReference
  2
LONGARROW
 10
52.00000000000001
 20
21.2
 30
0.0
 41
0.03125
 42
0.03125
 50
180.0
  0
INSERT
  5
F9
330
1F
100
AcDbEntity
  8
MOTOR
  6
Continuous
100
AcDbBlockReference
  2
LONGARROW
 10
12.00000000000001
 20
21.2
 30
0.0
 41
0.03125
 42
0.03125
  0
TEXT
  5
FA
330
1F
100
AcDbEntity
  8
MOTOR
  6
Continuous
100
AcDbText
 10
44.78683829624207
 20
22.85312499999999
 30
0.0
 40
0.79375
  1
10.00 mm
  7
ARIAL
 72
     1
 11
47.00000000000001
 21
23.25
 31
0.0
100
AcDbText
 73
     2
  0
LINE
  5
FB
330
1F
100
AcDbEntity
  8
MOTOR
  6
Continuous
100
AcDbLine
 10
52.00000000000001
 20
26.95886324041811
 30
0.0
 11
52.00000000000001
 21
21.56302264808362
 31
0.0
  0
LINE
  5
FC
330
1F
100
AcDbEntity
  8
MOTOR
  6
Continuous
100
AcDbLine
 10
42.00000000000001
 20
34.20624999999999
 30
0.0
 11
42.00000000000001
 21
21.56302264808362
 31
0.0
  0
LINE
  5
FD
330
1F
100
AcDbEntity
  8
MOTOR
  6
Continuous
100
AcDbLine
 10
52.00000000000001
 20
23.15052264808362
 30
0.0
 11
50.3197426620871
 21
23.15052264808362
 31
0.0
  0
LINE
  5
FE
330
1F
100
AcDbEntity
  8
MOTOR
  6
Continuous
100
AcDbLine
 10
42.00000000000001
 20
23.15052264808362
 30
0.0
 11
43.68025733791293
 21
23.15052264808362
 31
0.0
  0
INSERT
  5
FF
330
1F
100
AcDbEntity
  8
MOTOR
  6
Continuous
100
AcDbBlockReference
  2
LONGARROW
 10
52.00000000000001
 20
23.15052264808362
 30
0.0
 41
0.03125
 42
0.03125
 50
180.0
  0
INSERT
  5
100
330
1F
100
AcDbEntity
  8
MOTOR
  6
Continuous
100
AcDbBlockReference
  2
LONGARROW
 10
42.00000000000001
 20
23.15052264808362
 30
0.0
 41
0.03125
 42
0.03125
  0
TEXT
  5
101
330
1F
100
AcDbEntity
  8
MOTOR
  6
Continuous
100
AcDbText
 10
8.063689499162157
 20
20.853125
 30
0.0
 40
0.79375
  1
4.00 mm
  7
ARIAL
 72
     1
 11
10.00000000000001
 21
21.25
 31
0.0
100
AcDbText
 73
     2
  0
LINE
  5
102
330
1F
100
AcDbEntity
  8
MOTOR
  6
Continuous
100
AcDbLine
 10
12.00000000000001
 20
24.20625
 30
0.0
 11
12.00000000000001
 21
19.6625
 31
0.0
  0
LINE
  5
103
330
1F
100
AcDbEntity
  8
MOTOR
  6
Continuous
100
AcDbLine
 10
8.000000000000021
 20
29.20625
 30
0.0
 11
8.000000000000021
 21
19.6625
 31
0.0
  0
LINE
  5
104
330
1F
100
AcDbEntity
  8
MOTOR
  6
Continuous
100
AcDbLine
 10
12.00000000000001
 20
21.25
 30
0.0
 11
14.38125000000001
 21
21.25
 31
0.0
  0
LINE
  5
105
330
1F
100
AcDbEntity
  8
MOTOR
  6
Continuous
100
AcDbLine
 10
8.000000000000021
 20
21.25
 30
0.0
 11
5.61875000000002
 21
21.25
 31
0.0
  0
INSERT
  5
106
330
1F
100
AcDbEntity
  8
MOTOR
  6
Continuous
100
AcDbBlockReference
  2
LONGARROW
 10
12.00000000000001
 20
21.25
 30
0.0
 41
0.03125
 42
0.03125
  0
INSERT
  5
107
330
1F
100
AcDbEntity
  8
MOTOR
  6
Continuous
100
AcDbBlockReference
  2
LONGARROW
 10
8.000000000000021
 20
21.25
 30
0.0
 41
0.03125
 42
0.03125
 50
180.0
  0
TEXT
  5
108
330
1F
100
AcDbEntity
  8
MOTOR
  6
Continuous
100
AcDbText
 10
52.06368949916215
 20
20.853125
 30
0.0
 40
0.79375
  1
4.00 mm
  7
ARIAL
 72
     1
 11
54.00000000000002
 21
21.25
 31
0.0
100
AcDbText
 73
     2
  0
LINE
  5
109
330
1F
100
AcDbEntity
  8
MOTOR
  6
Continuous
100
AcDbLine
 10
56.00000000000001
 20
29.20625
 30
0.0
 11
56.00000000000001
 21
19.6625
 31
0.0
  0
LINE
  5
10A
330
1F
100
AcDbEntity
  8
MOTOR
  6
Continuous
100
AcDbLine
 10
52.00000000000001
 20
24.20624999999997
 30
0.0
 11
52.00000000000001
 21
19.6625
 31
0.0
  0
LINE
  5
10B
330
1F
100
AcDbEntity
  8
MOTOR
  6
Continuous
100
AcDbLine
 10
56.00000000000001
 20
21.25
 30
0.0
 11
58.38125000000001
 21
21.25
 31
0.0
  0
LINE
  5
10C
330
1F
100
AcDbEntity
  8
MOTOR
  6
Continuous
100
AcDbLine
 10
52.00000000000001
 20
21.25
 30
0.0
 11
49.61875000000002
 21
21.25
 31
0.0
  0
INSERT
  5
10D
330
1F
100
AcDbEntity
  8
MOTOR
  6
Continuous
100
AcDbBlockReference
  2
LONGARROW
 10
56.00000000000001
 20
21.25
 30
0.0
 41
0.03125
 42
0.03125
  0
INSERT
  5
10E
330
1F
100
AcDbEntity
  8
MOTOR
  6
Continuous
100
AcDbBlockReference
  2
LONGARROW
 10
52.00000000000001
 20
21.25
 30
0.0
 41
0.03125
 42
0.03125
 50
180.0
  0
TEXT
  5
10F
330
1F
100
AcDbEntity
  8
ENCODER
  6
Continuous
100
AcDbText
 10
17.89369380138816
 20
46.353125
 30
0.0
 40
0.79375
  1
6mm
  7
ARIAL
 72
     1
 11
19.00000000000002
 21
46.74999999999999
 31
0.0
100
AcDbText
 73
     2
  0
LINE
  5
110
330
1F
100
AcDbEntity
  8
ENCODER
  6
Continuous
100
AcDbLine
 10
15.97000000000001
 20
43.02582151756878
 30
0.0
 11
15.97000000000001
 21
48.33749999999999
 31
0.0
  0
LINE
  5
111
330
1F
100
AcDbEntity
  8
ENCODER
  6
Continuous
100
AcDbLine
 10
22.00000000000001
 20
35.79374999999999
 30
0.0
 11
22.00000000000001
 21
48.33749999999999
 31
0.0
  0
LINE
  5
112
330
1F
100
AcDbEntity
  8
ENCODER
  6
Continuous
100
AcDbLine
 10
15.97000000000001
 20
46.74999999999999
 30
0.0
 11
17.34054067842664
 21
46.74999999999999
 31
0.0
  0
LINE
  5
113
330
1F
100
AcDbEntity
  8
ENCODER
  6
Continuous
100
AcDbLine
 10
22.00000000000001
 20
46.74999999999999
 30
0.0
 11
20.65945932157339
 21
46.74999999999999
 31
0.0
  0
INSERT
  5
114
330
1F
100
AcDbEntity
  8
ENCODER
  6
Continuous
100
AcDbBlockReference
  2
LONGARROW
 10
15.97000000000001
 20
46.74999999999999
 30
0.0
 41
0.03125
 42
0.03125
  0
INSERT
  5
115
330
1F
100
AcDbEntity
  8
ENCODER
  6
Continuous
100
AcDbBlockReference
  2
LONGARROW
 10
22.00000000000001
 20
46.74999999999999
 30
0.0
 41
0.03125
 42
0.03125
 50
180.0
  0
TEXT
  5
116
330
1F
100
AcDbEntity
  8
ENCODER
  6
Continuous
100
AcDbText
 10
17.22869165027516
 20
40.603125
 30
0.0
 40
0.79375
  1
3.5mm
  7
ARIAL
 72
     1
 11
18.75000000000001
 21
41.0
 31
0.0
100
AcDbText
 73
     2
  0
LINE
  5
117
330
1F
100
AcDbEntity
  8
ENCODER
  6
Continuous
100
AcDbLine
 10
21.24641127247805
 20
43.73207151756878
 30
0.0
 11
16.42027161026011
 21
43.73207151756878
 31
0.0
  0
LINE
  5
118
330
1F
100
AcDbEntity
  8
ENCODER
  6
Continuous
100
AcDbLine
 10
21.24510805130053
 20
40.24983027943423
 30
0.0
 11
16.42027161026011
 21
40.24983027943423
 31
0.0
  0
LINE
  5
119
330
1F
100
AcDbEntity
  8
ENCODER
  6
Continuous
100
AcDbLine
 10
18.00777161026011
 20
43.73207151756878
 30
0.0
 11
18.0077716102601
 21
46.11332151756878
 31
0.0
  0
LINE
  5
11A
330
1F
100
AcDbEntity
  8
ENCODER
  6
Continuous
100
AcDbLine
 10
18.00777161026011
 20
40.24983027943423
 30
0.0
 11
18.00777161026011
 21
37.86858027943423
 31
0.0
  0
INSERT
  5
11B
330
1F
100
AcDbEntity
  8
ENCODER
  6
Continuous
100
AcDbBlockReference
  2
LONGARROW
 10
18.00777161026011
 20
43.73207151756878
 30
0.0
 41
0.03125
 42
0.03125
 50
90.00000000000007
  0
INSERT
  5
11C
330
1F
100
AcDbEntity
  8
ENCODER
  6
Continuous
100
AcDbBlockReference
  2
LONGARROW
 10
18.00777161026011
 20
40.24983027943423
 30
0.0
 41
0.03125
 42
0.03125
 50
270.0
  0
INSERT
  5
11D
330
1F
100
AcDbEntity
  8
ENCODER
  6
Continuous
100
AcDbBlockReference
  2
LONGARROW
 10
17.30541041961317
 20
37.56579981131094
 30
0.0
 41
0.03125
 42
0.03125
 50
115.6796103232347
  0
LWPOLYLINE
  5
11E
330
1F
100
AcDbEntity
  8
ENCODER
  6
Continuous
100
AcDbPolyline
 90
        3
 70
     0
 43
0.0
 10
17.30541041961317
 20
37.56579981131094
 10
13.25000000000002
 20
46.0
 10
9.618750000000019
 20
46.0
  0
TEXT
  5
11F
330
1F
100
AcDbEntity
  8
ENCODER
  6
Continuous
100
AcDbText
 10
6.27817728119154
 20
46.36137591761827
 30
0.0
 40
0.79375
  1
encoder stripe
  7
ARIAL
 72
     2
 11
12.58588039418865
 21
46.75825091761827
 31
0.0
100
AcDbText
 73
     2
  0
INSERT
  5
120
330
1F
100
AcDbEntity
  8
MOTOR
  6
Continuous
100
AcDbBlockReference
  2
LONGARROW
 10
43.62643787441097
 20
37.52085299862597
 30
0.0
 41
0.03125
 42
0.03125
 50
46.95054049369857
  0
LWPOLYLINE
  5
121
330
1F
100
AcDbEntity
  8
MOTOR
  6
Continuous
100
AcDbPolyline
 90
        3
 70
     0
 43
0.0
 10
43.62643787441097
 20
37.52085299862597
 10
44.54108872752196
 20
38.5
 10
47.42233872752197
 20
38.5
  0
TEXT
  5
122
330
1F
100
AcDbEntity
  8
MOTOR
  6
Continuous
100
AcDbText
 10
45.36371986513183
 20
38.75271292142466
 30
0.0
 40
0.79375
  1
drive
  7
ARIAL
 11
45.36371986513183
 21
39.14958792142466
 31
0.0
100
AcDbText
 73
     2
  0
TEXT
  5
123
330
1F
100
AcDbEntity
  8
MOTOR
  6
Continuous
100
AcDbText
 10
45.36371986513183
 20
37.56208792142466
 30
0.0
 40
0.79375
  1
shaft
  7
ARIAL
 11
1152.238484574348
 21
993.2089082041862
 31
0.0
100
AcDbText
 73
     2
  0
INSERT
  5
124
330
1F
100
AcDbEntity
  8
MOTOR
  6
Continuous
100
AcDbBlockReference
  2
LONGARROW
 10
24.53939807652906
 20
39.59499264514325
 30
0.0
 41
0.03125
 42
0.03125
 50
46.86191442924356
  0
LWPOLYLINE
  5
125
330
1F
100
AcDbEntity
  8
MOTOR
  6
Continuous
100
AcDbPolyline
 90
        3
 70
     0
 43
0.0
 10
24.53939807652906
 20
39.59499264514325
 10
30.54108872752197
 20
46.0
 10
34.42233872752197
 20
46.0
  0
TEXT
  5
126
330
1F
100
AcDbEntity
  8
MOTOR
  6
Continuous
100
AcDbText
 10
34.91493284923258
 20
47.06806433523653
 30
0.0
 40
0.79375
  1
second gear
  7
ARIAL
 11
34.91493284923258
 21
47.46493933523654
 31
0.0
100
AcDbText
 73
     2
  0
TEXT
  5
127
330
1F
100
AcDbEntity
  8
MOTOR
  6
Continuous
100
AcDbText
 10
34.91493284923258
 20
45.87743933523653
 30
0.0
 40
0.79375
  1
10.5mm barrel
  7
ARIAL
 11
886.8392943705075
 21
1204.418834115007
 31
0.0
100
AcDbText
 73
     2
  0
LWPOLYLINE
  5
128
330
1F
100
AcDbEntity
  8
MOTOR
  6
Continuous
100
AcDbPolyline
 90
        4
 70
     1
 43
0.0
 10
46.41608872752197
 20
16.875
 10
61.66608872752195
 20
16.875
 10
61.66608872752195
 20
6.125000000000001
 10
46.41608872752197
 20
6.125000000000001
  0
TEXT
  5
129
330
1F
100
AcDbEntity
  8
MOTOR
  6
Continuous
100
AcDbText
 10
48.28466741008788
 20
14.84089858618814
 30
0.0
 40
1.249999999999999
  1
   bozotronics
  7
ARIAL
100
AcDbText
  0
TEXT
  5
12A
330
1F
100
AcDbEntity
  8
MOTOR
  6
Continuous
100
AcDbText
 10
48.28466741008788
 20
12.96589858618814
 30
0.0
 40
1.249999999999999
  1
RC Hobby Servo
  7
ARIAL
100
AcDbText
  0
TEXT
  5
12B
330
1F
100
AcDbEntity
  8
MOTOR
  6
Continuous
100
AcDbText
 10
48.28466741008788
 20
11.09089858618814
 30
0.0
 40
1.249999999999999
  1
  encoder hack
  7
ARIAL
100
AcDbText
  0
TEXT
  5
12C
330
1F
100
AcDbEntity
  8
MOTOR
  6
Continuous
100
AcDbText
 10
48.28466741008788
 20
9.21589858618814
 30
0.0
 40
1.249999999999999
  1
    v1.0 4/2007
  7
ARIAL
100
AcDbText
  0
TEXT
  5
12D
330
1F
100
AcDbEntity
  8
MOTOR
  6
Continuous
100
AcDbText
 10
48.28466741008788
 20
7.34089858618814
 30
0.0
 40
1.249999999999999
  1
   M.Schippling
  7
ARIAL
100
AcDbText
  0
ARC
  5
12E
330
1F
100
AcDbEntity
  8
MOTOR
  6
Continuous
100
AcDbCircle
 10
56.00000000000001
 20
30.0
 30
0.0
 40
2.369999999999998
100
AcDbArc
 50
30.41962171536948
 51
329.5803782846305
  0
ARC
  5
12F
330
1F
100
AcDbEntity
  8
MOTOR
  6
Continuous
100
AcDbCircle
 10
56.00000000000001
 20
40.0
 30
0.0
 40
2.369999999999998
100
AcDbArc
 50
30.41962171536948
 51
329.5803782846305
  0
ENDSEC
  0
SECTION
  2
OBJECTS
  0
DICTIONARY
  5
C
330
0
100
AcDbDictionary
281
     1
  3
ACAD_GROUP
350
D
  3
ACAD_LAYOUT
350
1A
  3
ACAD_MLINESTYLE
350
17
  3
ACAD_PLOTSETTINGS
350
19
  3
ACAD_PLOTSTYLENAME
350
E
  3
AcDbVariableDictionary
350
130
  0
DICTIONARY
  5
D
102
{ACAD_REACTORS
330
C
102
}
330
C
100
AcDbDictionary
281
     1
  3
*A1
350
8D
  3
*A2
350
94
  3
*A3
350
9E
  0
DICTIONARY
  5
1A
102
{ACAD_REACTORS
330
C
102
}
330
C
100
AcDbDictionary
281
     1
  3
Layout1
350
1E
  3
Layout2
350
26
  3
Model
350
22
  0
DICTIONARY
  5
17
102
{ACAD_REACTORS
330
C
102
}
330
C
100
AcDbDictionary
281
     1
  3
Standard
350
18
  0
DICTIONARY
  5
19
102
{ACAD_REACTORS
330
C
102
}
330
C
100
AcDbDictionary
281
     1
  0
ACDBDICTIONARYWDFLT
  5
E
102
{ACAD_REACTORS
330
C
102
}
330
C
100
AcDbDictionary
281
     1
  3
Normal
350
F
100
AcDbDictionaryWithDefault
340
F
  0
DICTIONARY
  5
130
102
{ACAD_REACTORS
330
C
102
}
330
C
100
AcDbDictionary
281
     1
  3
DIMASSOC
350
132
  3
HIDETEXT
350
131
  0
GROUP
  5
8D
102
{ACAD_REACTORS
330
D
102
}
330
D
100
AcDbGroup
300

 70
     0
 71
     1
340
8E
340
8F
  0
GROUP
  5
94
102
{ACAD_REACTORS
330
D
102
}
330
D
100
AcDbGroup
300

 70
     0
 71
     1
340
95
340
96
340
97
340
98
340
99
340
9A
340
9B
340
9D
  0
GROUP
  5
9E
102
{ACAD_REACTORS
330
D
102
}
330
D
100
AcDbGroup
300

 70
     0
 71
     1
340
9F
340
A0
340
A1
340
A2
340
A3
340
A4
340
A5
340
A6
  0
LAYOUT
  5
1E
102
{ACAD_REACTORS
330
1A
102
}
330
1A
100
AcDbPlotSettings
  1

  2

  4

  6

 40
0.0
 41
0.0
 42
0.0
 43
0.0
 44
0.0
 45
0.0
 46
0.0
 47
0.0
 48
0.0
 49
0.0
140
0.0
141
0.0
142
1.0
143
1.0
 70
   688
 72
     0
 73
     0
 74
     5
  7

 75
    16
147
1.0
148
0.0
149
0.0
100
AcDbLayout
  1
Layout1
 70
     1
 71
     1
 10
0.0
 20
0.0
 11
12.0
 21
9.0
 12
0.0
 22
0.0
 32
0.0
 14
1.000000000000000E+20
 24
1.000000000000000E+20
 34
1.000000000000000E+20
 15
-1.000000000000000E+20
 25
-1.000000000000000E+20
 35
-1.000000000000000E+20
146
0.0
 13
0.0
 23
0.0
 33
0.0
 16
1.0
 26
0.0
 36
0.0
 17
0.0
 27
1.0
 37
0.0
 76
     0
330
1B
  0
LAYOUT
  5
26
102
{ACAD_REACTORS
330
1A
102
}
330
1A
100
AcDbPlotSettings
  1

  2

  4

  6

 40
0.0
 41
0.0
 42
0.0
 43
0.0
 44
0.0
 45
0.0
 46
0.0
 47
0.0
 48
0.0
 49
0.0
140
0.0
141
0.0
142
1.0
143
1.0
 70
   688
 72
     0
 73
     0
 74
     5
  7

 75
    16
147
1.0
148
0.0
149
0.0
100
AcDbLayout
  1
Layout2
 70
     1
 71
     2
 10
0.0
 20
0.0
 11
12.0
 21
9.0
 12
0.0
 22
0.0
 32
0.0
 14
0.0
 24
0.0
 34
0.0
 15
0.0
 25
0.0
 35
0.0
146
0.0
 13
0.0
 23
0.0
 33
0.0
 16
1.0
 26
0.0
 36
0.0
 17
0.0
 27
1.0
 37
0.0
 76
     0
330
23
  0
LAYOUT
  5
22
102
{ACAD_REACTORS
330
1A
102
}
330
1A
100
AcDbPlotSettings
  1

  2

  4

  6

 40
0.0
 41
0.0
 42
0.0
 43
0.0
 44
0.0
 45
0.0
 46
0.0
 47
0.0
 48
0.0
 49
0.0
140
0.0
141
0.0
142
1.0
143
1.0
 70
  1712
 72
     0
 73
     0
 74
     0
  7

 75
     0
147
1.0
148
0.0
149
0.0
100
AcDbLayout
  1
Model
 70
     1
 71
     0
 10
0.0
 20
0.0
 11
12.0
 21
9.0
 12
0.0
 22
0.0
 32
0.0
 14
0.0
 24
0.0
 34
0.0
 15
0.0
 25
0.0
 35
0.0
146
0.0
 13
0.0
 23
0.0
 33
0.0
 16
1.0
 26
0.0
 36
0.0
 17
0.0
 27
1.0
 37
0.0
 76
     0
330
1F
  0
MLINESTYLE
  5
18
102
{ACAD_REACTORS
330
17
102
}
330
17
100
AcDbMlineStyle
  2
STANDARD
 70
     0
  3

 62
   256
 51
90.0
 52
90.0
 71
     2
 49
0.5
 62
   256
  6
BYLAYER
 49
-0.5
 62
   256
  6
BYLAYER
  0
ACDBPLACEHOLDER
  5
F
102
{ACAD_REACTORS
330
E
102
}
330
E
  0
DICTIONARYVAR
  5
132
102
{ACAD_REACTORS
330
130
102
}
330
130
100
DictionaryVariables
280
     0
  1
2
  0
DICTIONARYVAR
  5
131
102
{ACAD_REACTORS
330
130
102
}
330
130
100
DictionaryVariables
280
     0
  1
1
  0
ENDSEC
  0
EOF
