  0
SECTION
  2
HEADER
  9
$ACADVER
  1
AC1009
  9
$INSBASE
 10
0.0
 20
0.0
 30
0.0
  9
$EXTMIN
 10
0.0
 20
-0.066
 30
-0.00000001
  9
$EXTMAX
 10
1.8999999999999999
 20
0.8740000000000001
 30
0.00000001
  9
$LIMMIN
 10
-0.072817656765675
 20
-0.9543640350877248
  9
$LIMMAX
 10
2.0530156765676582
 20
1.7964692982456081
  9
$ORTHOMODE
 70
     0
  9
$REGENMODE
 70
     1
  9
$FILLMODE
 70
     1
  9
$QTEXTMODE
 70
     0
  9
$MIRRTEXT
 70
     1
  9
$DRAGMODE
 70
     2
  9
$LTSCALE
 40
0.001
  9
$OSMODE
 70
     0
  9
$ATTMODE
 70
     1
  9
$TEXTSIZE
 40
0.05
  9
$TRACEWID
 40
0.05
  9
$TEXTSTYLE
  7
STANDARD
  9
$CLAYER
  8
0
  9
$CELTYPE
  6
BYLAYER
  9
$CECOLOR
 62
   256
  9
$DIMSCALE
 40
1.0
  9
$DIMASZ
 40
0.18
  9
$DIMEXO
 40
0.0625
  9
$DIMDLI
 40
0.38
  9
$DIMRND
 40
0.0
  9
$DIMDLE
 40
0.0
  9
$DIMEXE
 40
0.18
  9
$DIMTP
 40
0.0
  9
$DIMTM
 40
0.0
  9
$DIMTXT
 40
0.03125
  9
$DIMCEN
 40
0.09
  9
$DIMTSZ
 40
0.0
  9
$DIMTOL
 70
     0
  9
$DIMLIM
 70
     0
  9
$DIMTIH
 70
     1
  9
$DIMTOH
 70
     1
  9
$DIMSE1
 70
     0
  9
$DIMSE2
 70
     0
  9
$DIMTAD
 70
     0
  9
$DIMZIN
 70
     0
  9
$DIMBLK
  1

  9
$DIMASO
 70
     1
  9
$DIMSHO
 70
     1
  9
$DIMPOST
  1

  9
$DIMAPOST
  1

  9
$DIMALT
 70
     0
  9
$DIMALTD
 70
     2
  9
$DIMALTF
 40
25.399999999999999
  9
$DIMLFAC
 40
1.0
  9
$DIMTOFL
 70
     0
  9
$DIMTVP
 40
0.0
  9
$DIMTIX
 70
     0
  9
$DIMSOXD
 70
     0
  9
$DIMSAH
 70
     0
  9
$DIMBLK1
  1

  9
$DIMBLK2
  1

  9
$DIMSTYLE
  2
STANDARD
  9
$DIMCLRD
 70
     0
  9
$DIMCLRE
 70
     0
  9
$DIMCLRT
 70
     0
  9
$DIMTFAC
 40
1.0
  9
$DIMGAP
 40
0.09
  9
$LUNITS
 70
     2
  9
$LUPREC
 70
     3
  9
$SKETCHINC
 40
0.1
  9
$FILLETRAD
 40
0.5
  9
$AUNITS
 70
     0
  9
$AUPREC
 70
     0
  9
$MENU
  1
.
  9
$ELEVATION
 40
0.0
  9
$PELEVATION
 40
0.0
  9
$THICKNESS
 40
0.0
  9
$LIMCHECK
 70
     0
  9
$BLIPMODE
 70
     0
  9
$CHAMFERA
 40
0.25
  9
$CHAMFERB
 40
0.25
  9
$SKPOLY
 70
     0
  9
$TDCREATE
 40
2453858.7780286572
  9
$TDUPDATE
 40
2453858.7780286572
  9
$TDINDWG
 40
0.0000015162
  9
$TDUSRTIMER
 40
0.0000015162
  9
$USRTIMER
 70
     1
  9
$ANGBASE
 50
0.0
  9
$ANGDIR
 70
     0
  9
$PDMODE
 70
     0
  9
$PDSIZE
 40
0.0
  9
$PLINEWID
 40
0.0
  9
$COORDS
 70
     0
  9
$SPLFRAME
 70
     0
  9
$SPLINETYPE
 70
     6
  9
$SPLINESEGS
 70
     8
  9
$ATTDIA
 70
     0
  9
$ATTREQ
 70
     1
  9
$HANDLING
 70
 22529
  9
$HANDSEED
  5
E3
  9
$SURFTAB1
 70
     6
  9
$SURFTAB2
 70
     6
  9
$SURFTYPE
 70
     6
  9
$SURFU
 70
     6
  9
$SURFV
 70
     6
  9
$UCSNAME
  2

  9
$UCSORG
 10
0.0
 20
0.0
 30
0.0
  9
$UCSXDIR
 10
1.0
 20
0.0
 30
0.0
  9
$UCSYDIR
 10
0.0
 20
1.0
 30
0.0
  9
$PUCSNAME
  2

  9
$PUCSORG
 10
0.0
 20
0.0
 30
0.0
  9
$PUCSXDIR
 10
1.0
 20
0.0
 30
0.0
  9
$PUCSYDIR
 10
0.0
 20
1.0
 30
0.0
  9
$USERI1
 70
     0
  9
$USERI2
 70
     0
  9
$USERI3
 70
     0
  9
$USERI4
 70
     0
  9
$USERI5
 70
     0
  9
$USERR1
 40
0.0
  9
$USERR2
 40
0.0
  9
$USERR3
 40
0.0
  9
$USERR4
 40
0.0
  9
$USERR5
 40
0.0
  9
$WORLDVIEW
 70
     1
  9
$SHADEDGE
 70
     3
  9
$SHADEDIF
 70
    70
  9
$TILEMODE
 70
     1
  9
$MAXACTVP
 70
    64
  9
$PLIMCHECK
 70
     0
  9
$PEXTMIN
 10
1.0000000000000000E+020
 20
1.0000000000000000E+020
 30
1.0000000000000000E+020
  9
$PEXTMAX
 10
-1.0000000000000000E+020
 20
-1.0000000000000000E+020
 30
-1.0000000000000000E+020
  9
$PLIMMIN
 10
0.0
 20
0.0
  9
$PLIMMAX
 10
12.0
 20
9.0
  9
$UNITMODE
 70
     0
  9
$VISRETAIN
 70
     1
  9
$PLINEGEN
 70
     0
  9
$PSLTSCALE
 70
     1
  0
ENDSEC
  0
SECTION
  2
TABLES
  0
TABLE
  2
VPORT
 70
     1
  0
VPORT
  2
*ACTIVE
 70
     0
 10
0.0
 20
0.0
 11
1.0
 21
1.0
 12
0.9536901815181543
 22
-0.0561293859649207
 13
0.0
 23
0.0
 14
1.0
 24
1.0
 15
0.0
 25
0.0
 16
0.0
 26
0.0
 36
1.0
 17
0.0
 27
0.0
 37
0.0
 40
1.7964692982456081
 41
1.142805879606507
 42
50.0
 43
0.0
 44
0.0
 50
0.0
 51
0.0
 71
     0
 72
   100
 73
     1
 74
     1
 75
     0
 76
     0
 77
     0
 78
     0
  0
ENDTAB
  0
TABLE
  2
LTYPE
 70
    40
  0
LTYPE
  2
CONTINUOUS
 70
     0
  3
Solid line
 72
    65
 73
     0
 40
0.0
  0
LTYPE
  2
HIDDEN
 70
     0
  3
_ _ _ _ _ _ _ _ _ _ _ _ _ _ 
 72
    65
 73
     2
 40
0.375
 49
0.25
 49
-0.125
  0
LTYPE
  2
DASHED
 70
     0
  3
__ __ __ __ __ __ __ __ __ 
 72
    65
 73
     2
 40
0.75
 49
0.5
 49
-0.25
  0
LTYPE
  2
CENTER
 70
     0
  3
____ _ ____ _ ____ _ ____ _ 
 72
    65
 73
     4
 40
2.0
 49
1.25
 49
-0.25
 49
0.25
 49
-0.25
  0
LTYPE
  2
PHANTOM
 70
     0
  3
_____ _ _ _____ _ _ _____ _ _ 
 72
    65
 73
     6
 40
2.5
 49
1.25
 49
-0.25
 49
0.25
 49
-0.25
 49
0.25
 49
-0.25
  0
LTYPE
  2
DOT
 70
     0
  3
...........................
 72
    65
 73
     2
 40
0.25
 49
0.0
 49
-0.25
  0
LTYPE
  2
DASHDOT
 70
     0
  3
__ . __ . __ . __ . __ . __ . 
 72
    65
 73
     4
 40
1.0
 49
0.5
 49
-0.25
 49
0.0
 49
-0.25
  0
LTYPE
  2
DIVIDE
 70
     0
  3
__ . . __ . . __ . . __ . . 
 72
    65
 73
     6
 40
1.25
 49
0.5
 49
-0.25
 49
0.0
 49
-0.25
 49
0.0
 49
-0.25
  0
LTYPE
  2
BORDER
 70
     0
  3
__ __ . __ __ . __ __ . __ __ .
 72
    65
 73
     6
 40
1.75
 49
0.5
 49
-0.25
 49
0.5
 49
-0.25
 49
0.0
 49
-0.25
  0
LTYPE
  2
BORDER2
 70
     0
  3
Border (.5x) __.__.__.__.__.__.
 72
    65
 73
     6
 40
0.875
 49
0.25
 49
-0.125
 49
0.25
 49
-0.125
 49
0.0
 49
-0.125
  0
LTYPE
  2
BORDERX2
 70
     0
  3
Border (2x) ____  ____  .  ____
 72
    65
 73
     6
 40
3.5
 49
1.0
 49
-0.5
 49
1.0
 49
-0.5
 49
0.0
 49
-0.5
  0
LTYPE
  2
CENTER2
 70
     0
  3
Center (.5x) ___ _ ___ _ ___ _ 
 72
    65
 73
     4
 40
1.125
 49
0.7500000000000001
 49
-0.125
 49
0.125
 49
-0.125
  0
LTYPE
  2
CENTERX2
 70
     0
  3
Center (2x) ________  __  _____
 72
    65
 73
     4
 40
4.0
 49
2.5
 49
-0.5
 49
0.5
 49
-0.5
  0
LTYPE
  2
DASHDOT2
 70
     0
  3
Dash dot (.5x) _._._._._._._._.
 72
    65
 73
     4
 40
0.5
 49
0.25
 49
-0.125
 49
0.0
 49
-0.125
  0
LTYPE
  2
DASHDOTX2
 70
     0
  3
Dash dot (2x) ____  .  ____  . 
 72
    65
 73
     4
 40
2.0
 49
1.0
 49
-0.5
 49
0.0
 49
-0.5
  0
LTYPE
  2
DASHED2
 70
     0
  3
Dashed (.5x) _ _ _ _ _ _ _ _ _ 
 72
    65
 73
     2
 40
0.375
 49
0.25
 49
-0.125
  0
LTYPE
  2
DASHEDX2
 70
     0
  3
Dashed (2x) ____  ____  ____  _
 72
    65
 73
     2
 40
1.5
 49
1.0
 49
-0.5
  0
LTYPE
  2
DIVIDE2
 70
     0
  3
Divide (.5x) __..__..__..__..__
 72
    65
 73
     6
 40
0.625
 49
0.25
 49
-0.125
 49
0.0
 49
-0.125
 49
0.0
 49
-0.125
  0
LTYPE
  2
DIVIDEX2
 70
     0
  3
Divide (2x) ________  .  .  ___
 72
    65
 73
     6
 40
2.5
 49
1.0
 49
-0.5
 49
0.0
 49
-0.5
 49
0.0
 49
-0.5
  0
LTYPE
  2
DOT2
 70
     0
  3
Dot (.5x) .....................
 72
    65
 73
     2
 40
0.125
 49
0.0
 49
-0.125
  0
LTYPE
  2
DOTX2
 70
     0
  3
Dot (2x) .  .  .  .  .  .  .  .
 72
    65
 73
     2
 40
0.5
 49
0.0
 49
-0.5
  0
LTYPE
  2
HIDDEN2
 70
     0
  3
Hidden (.5x) _ _ _ _ _ _ _ _ _ 
 72
    65
 73
     2
 40
0.1875
 49
0.125
 49
-0.0625
  0
LTYPE
  2
HIDDENX2
 70
     0
  3
Hidden (2x) ____ ____ ____ ____
 72
    65
 73
     2
 40
0.75
 49
0.5
 49
-0.25
  0
LTYPE
  2
PHANTOM2
 70
     0
  3
Phantom (.5x) ___ _ _ ___ _ _ _
 72
    65
 73
     6
 40
1.25
 49
0.6250000000000001
 49
-0.125
 49
0.125
 49
-0.125
 49
0.125
 49
-0.125
  0
LTYPE
  2
PHANTOMX2
 70
     0
  3
Phantom (2x) ____________    __
 72
    65
 73
     6
 40
5.0
 49
2.5
 49
-0.5
 49
0.5
 49
-0.5
 49
0.5
 49
-0.5
  0
LTYPE
  2
DOTS
 70
     0
  3
Dots - - - - - - - - - - - - - 
 72
    65
 73
     2
 40
0.1
 49
0.05
 49
-0.05
  0
LTYPE
  2
ACAD_ISO02W100
 70
     0
  3
__ __ __ __ __ __ __ __ __ __ _
 72
    65
 73
     2
 40
15.0
 49
12.0
 49
-3.0
  0
LTYPE
  2
ACAD_ISO03W100
 70
     0
  3
__    __    __    __    __    _
 72
    65
 73
     2
 40
30.0
 49
12.0
 49
-18.0
  0
LTYPE
  2
ACAD_ISO04W100
 70
     0
  3
____ . ____ . ____ . ____ . ___
 72
    65
 73
     4
 40
30.5
 49
24.0
 49
-3.0
 49
0.5
 49
-3.0
  0
LTYPE
  2
ACAD_ISO05W100
 70
     0
  3
____ .. ____ .. ____ .. ____ ..
 72
    65
 73
     6
 40
34.0
 49
24.0
 49
-3.0
 49
0.5
 49
-3.0
 49
0.5
 49
-3.0
  0
LTYPE
  2
ACAD_ISO06W100
 70
     0
  3
____ ... ____ ... ____ ... ____
 72
    65
 73
     6
 40
34.0
 49
24.0
 49
-3.0
 49
0.5
 49
-3.0
 49
0.5
 49
-3.0
  0
LTYPE
  2
ACAD_ISO07W100
 70
     0
  3
. . . . . . . . . . . . . . . .
 72
    65
 73
     2
 40
3.5
 49
0.5
 49
-3.0
  0
LTYPE
  2
ACAD_ISO08W100
 70
     0
  3
____ __ ____ __ ____ __ ____ __
 72
    65
 73
     4
 40
36.0
 49
24.0
 49
-3.0
 49
6.0
 49
-3.0
  0
LTYPE
  2
ACAD_ISO09W100
 70
     0
  3
____ __ __ ____ __ __ ____ __ _
 72
    65
 73
     6
 40
45.0
 49
24.0
 49
-3.0
 49
6.0
 49
-3.0
 49
6.0
 49
-3.0
  0
LTYPE
  2
ACAD_ISO10W100
 70
     0
  3
__ . __ . __ . __ . __ . __ . _
 72
    65
 73
     4
 40
18.5
 49
12.0
 49
-3.0
 49
0.5
 49
-3.0
  0
LTYPE
  2
ACAD_ISO11W100
 70
     0
  3
__ __ . __ __ . __ __ . __ __ .
 72
    65
 73
     6
 40
33.5
 49
12.0
 49
-3.0
 49
12.0
 49
-3.0
 49
0.5
 49
-3.0
  0
LTYPE
  2
ACAD_ISO12W100
 70
     0
  3
__ . . __ . . __ . . __ . . __ 
 72
    65
 73
     6
 40
22.0
 49
12.0
 49
-3.0
 49
0.5
 49
-3.0
 49
0.5
 49
-3.0
  0
LTYPE
  2
ACAD_ISO13W100
 70
     0
  3
__ __ . . __ __ . . __ __ . . _
 72
    65
 73
     6
 40
33.5
 49
12.0
 49
-3.0
 49
12.0
 49
-3.0
 49
0.5
 49
-3.0
  0
LTYPE
  2
ACAD_ISO14W100
 70
     0
  3
__ . . . __ . . . __ . . . __ .
 72
    65
 73
     6
 40
22.0
 49
12.0
 49
-3.0
 49
0.5
 49
-3.0
 49
0.5
 49
-3.0
  0
LTYPE
  2
ACAD_ISO15W100
 70
     0
  3
__ __ . . . __ __ . . . __ __ .
 72
    65
 73
     6
 40
33.5
 49
12.0
 49
-3.0
 49
12.0
 49
-3.0
 49
0.5
 49
-3.0
  0
ENDTAB
  0
TABLE
  2
LAYER
 70
     1
  0
LAYER
  2
0
 70
     0
 62
     7
  6
CONTINUOUS
  0
ENDTAB
  0
TABLE
  2
STYLE
 70
     5
  0
STYLE
  2
STANDARD
 70
     0
 40
0.0
 41
1.0
 50
0.0
 71
     0
 42
0.05
  3
txt
  4

  0
STYLE
  2
ITALIC
 70
     0
 40
0.0
 41
1.0
 50
0.0
 71
     0
 42
0.05
  3
ITALIC
  4

  0
STYLE
  2
SIMPLEX
 70
     0
 40
0.0
 41
1.0
 50
0.0
 71
     0
 42
0.05
  3
SIMPLEX
  4

  0
STYLE
  2
COMPLEX
 70
     0
 40
0.0
 41
1.0
 50
0.0
 71
     0
 42
0.05
  3
COMPLEX
  4

  0
STYLE
  2
ARIAL
 70
     0
 40
0.0
 41
1.0
 50
0.0
 71
     0
 42
0.05
  3
txt
  4

  0
ENDTAB
  0
TABLE
  2
VIEW
 70
     0
  0
ENDTAB
  0
TABLE
  2
UCS
 70
     0
  0
ENDTAB
  0
TABLE
  2
APPID
 70
     1
  0
APPID
  2
ACAD
 70
     0
  0
ENDTAB
  0
TABLE
  2
DIMSTYLE
 70
     1
  0
DIMSTYLE
  2
STANDARD
 70
     0
  3

  4

  5

  6

  7

 40
1.0
 41
0.18
 42
0.0625
 43
0.38
 44
0.18
 45
0.0
 46
0.0
 47
0.0
 48
0.0
140
0.18
141
0.09
142
0.0
143
25.399999999999999
144
1.0
145
0.0
146
1.0
147
0.09
 71
     0
 72
     0
 73
     1
 74
     1
 75
     0
 76
     0
 77
     0
 78
     0
170
     0
171
     2
172
     0
173
     0
174
     0
175
     0
176
     0
177
     0
178
     0
  0
ENDTAB
  0
ENDSEC
  0
SECTION
  2
BLOCKS
  0
BLOCK
  8
0
  2
$MODEL_SPACE
 70
     0
 10
0.0
 20
0.0
 30
0.0
  3
$MODEL_SPACE
  1

  0
ENDBLK
  5
21
  8
0
  0
BLOCK
 67
     1
  8
0
  2
$PAPER_SPACE
 70
     0
 10
0.0
 20
0.0
 30
0.0
  3
$PAPER_SPACE
  1

  0
ENDBLK
  5
1D
 67
     1
  8
0
  0
ENDSEC
  0
SECTION
  2
ENTITIES
  0
LINE
  5
52
  8
0
 62
     7
 10
0.0
 20
0.8
 30
0.0
 11
1.8999999999999999
 21
0.8
 31
0.0
  0
LINE
  5
53
  8
0
 62
     7
 10
1.8999999999999999
 20
0.8
 30
0.0
 11
1.8999999999999999
 21
0.0
 31
0.0
  0
LINE
  5
54
  8
0
 62
     7
 10
1.8999999999999999
 20
0.0
 30
0.0
 11
0.0
 21
0.0
 31
0.0
  0
LINE
  5
55
  8
0
 62
     7
 10
0.0
 20
0.0
 30
0.0
 11
0.0
 21
0.8
 31
0.0
  0
CIRCLE
  5
56
  8
0
 62
     7
 10
1.635999999999999
 20
0.395
 30
0.0
 40
0.038
  0
CIRCLE
  5
57
  8
0
 62
     7
 10
0.5300000000000001
 20
0.395
 30
0.0
 40
0.038
  0
CIRCLE
  5
58
  8
0
 62
     7
 10
0.151
 20
0.454
 30
0.0
 40
0.08
  0
LINE
  5
59
  8
0
 62
     7
 10
1.708
 20
0.425
 30
0.0
 11
1.7330000000000001
 21
0.425
 31
0.0
  0
LINE
  5
5A
  8
0
 62
     7
 10
1.7330000000000001
 20
0.425
 30
0.0
 11
1.7330000000000001
 21
0.383
 31
0.0
  0
LINE
  5
5B
  8
0
 62
     7
 10
1.7330000000000001
 20
0.383
 30
0.0
 11
1.7250000000000001
 21
0.375
 31
0.0
  0
LINE
  5
5C
  8
0
 62
     7
 10
1.7250000000000001
 20
0.375
 30
0.0
 11
1.708
 21
0.375
 31
0.0
  0
LINE
  5
5D
  8
0
 62
     7
 10
1.708
 20
0.375
 30
0.0
 11
1.7
 21
0.383
 31
0.0
  0
LINE
  5
5E
  8
0
 62
     7
 10
1.758
 20
0.417
 30
0.0
 11
1.766999999999999
 21
0.425
 31
0.0
  0
LINE
  5
5F
  8
0
 62
     7
 10
1.766999999999999
 20
0.425
 30
0.0
 11
1.766999999999999
 21
0.375
 31
0.0
  0
LINE
  5
60
  8
0
 62
     7
 10
1.758
 20
0.375
 30
0.0
 11
1.774999999999999
 21
0.375
 31
0.0
  0
LINE
  5
61
  8
0
 62
     7
 10
1.6679999999999999
 20
0.186
 30
0.0
 11
1.7330000000000001
 21
0.186
 31
0.0
  0
LINE
  5
62
  8
0
 62
     7
 10
1.7330000000000001
 20
0.186
 30
0.0
 11
1.7330000000000001
 21
0.121
 31
0.0
  0
LINE
  5
63
  8
0
 62
     7
 10
1.7330000000000001
 20
0.121
 30
0.0
 11
1.6679999999999999
 21
0.121
 31
0.0
  0
LINE
  5
64
  8
0
 62
     7
 10
1.6679999999999999
 20
0.121
 30
0.0
 11
1.6679999999999999
 21
0.186
 31
0.0
  0
CIRCLE
  5
65
  8
0
 62
     7
 10
1.700999999999999
 20
0.054
 30
0.0
 40
0.032
  0
CIRCLE
  5
66
  8
0
 62
     7
 10
1.6009999999999991
 20
0.154
 30
0.0
 40
0.032
  0
CIRCLE
  5
67
  8
0
 62
     7
 10
1.6009999999999991
 20
0.054
 30
0.0
 40
0.032
  0
CIRCLE
  5
68
  8
0
 62
     7
 10
1.500999999999999
 20
0.154
 30
0.0
 40
0.032
  0
CIRCLE
  5
69
  8
0
 62
     7
 10
1.500999999999999
 20
0.054
 30
0.0
 40
0.032
  0
CIRCLE
  5
6A
  8
0
 62
     7
 10
1.4009999999999989
 20
0.154
 30
0.0
 40
0.032
  0
CIRCLE
  5
6B
  8
0
 62
     7
 10
1.4009999999999989
 20
0.054
 30
0.0
 40
0.032
  0
CIRCLE
  5
6C
  8
0
 62
     7
 10
1.300999999999999
 20
0.154
 30
0.0
 40
0.032
  0
CIRCLE
  5
6D
  8
0
 62
     7
 10
1.300999999999999
 20
0.054
 30
0.0
 40
0.032
  0
CIRCLE
  5
6E
  8
0
 62
     7
 10
1.200999999999999
 20
0.154
 30
0.0
 40
0.032
  0
CIRCLE
  5
6F
  8
0
 62
     7
 10
1.200999999999999
 20
0.054
 30
0.0
 40
0.032
  0
CIRCLE
  5
70
  8
0
 62
     7
 10
1.1009999999999991
 20
0.154
 30
0.0
 40
0.032
  0
CIRCLE
  5
71
  8
0
 62
     7
 10
1.1009999999999991
 20
0.054
 30
0.0
 40
0.032
  0
CIRCLE
  5
72
  8
0
 62
     7
 10
1.000999999999999
 20
0.154
 30
0.0
 40
0.032
  0
CIRCLE
  5
73
  8
0
 62
     7
 10
1.000999999999999
 20
0.054
 30
0.0
 40
0.032
  0
CIRCLE
  5
74
  8
0
 62
     7
 10
0.9009999999999999
 20
0.154
 30
0.0
 40
0.032
  0
CIRCLE
  5
75
  8
0
 62
     7
 10
0.9009999999999999
 20
0.054
 30
0.0
 40
0.032
  0
CIRCLE
  5
76
  8
0
 62
     7
 10
0.8009999999999999
 20
0.154
 30
0.0
 40
0.032
  0
CIRCLE
  5
77
  8
0
 62
     7
 10
0.8009999999999999
 20
0.054
 30
0.0
 40
0.032
  0
CIRCLE
  5
78
  8
0
 62
     7
 10
0.701
 20
0.154
 30
0.0
 40
0.032
  0
CIRCLE
  5
79
  8
0
 62
     7
 10
0.701
 20
0.054
 30
0.0
 40
0.032
  0
CIRCLE
  5
7A
  8
0
 62
     7
 10
0.601
 20
0.154
 30
0.0
 40
0.032
  0
CIRCLE
  5
7B
  8
0
 62
     7
 10
0.601
 20
0.054
 30
0.0
 40
0.032
  0
CIRCLE
  5
7C
  8
0
 62
     7
 10
0.501
 20
0.154
 30
0.0
 40
0.032
  0
CIRCLE
  5
7D
  8
0
 62
     7
 10
0.501
 20
0.054
 30
0.0
 40
0.032
  0
LINE
  5
7E
  8
0
 62
     7
 10
1.895999999999999
 20
0.274
 30
0.0
 11
1.895999999999999
 21
-0.066
 31
0.0
  0
LINE
  5
7F
  8
0
 62
     7
 10
0.306
 20
-0.066
 30
0.0
 11
1.895999999999999
 21
-0.066
 31
0.0
  0
LINE
  5
80
  8
0
 62
     7
 10
0.306
 20
-0.066
 30
0.0
 11
0.306
 21
0.274
 31
0.0
  0
LINE
  5
81
  8
0
 62
     7
 10
1.895999999999999
 20
0.274
 30
0.0
 11
0.306
 21
0.274
 31
0.0
  0
LINE
  5
82
  8
0
 62
     7
 10
1.6180000000000001
 20
0.786
 30
0.0
 11
1.6830000000000001
 21
0.786
 31
0.0
  0
LINE
  5
83
  8
0
 62
     7
 10
1.6830000000000001
 20
0.786
 30
0.0
 11
1.6830000000000001
 21
0.721
 31
0.0
  0
LINE
  5
84
  8
0
 62
     7
 10
1.6830000000000001
 20
0.721
 30
0.0
 11
1.6180000000000001
 21
0.721
 31
0.0
  0
LINE
  5
85
  8
0
 62
     7
 10
1.6180000000000001
 20
0.721
 30
0.0
 11
1.6180000000000001
 21
0.786
 31
0.0
  0
CIRCLE
  5
86
  8
0
 62
     7
 10
1.6509999999999989
 20
0.654
 30
0.0
 40
0.032
  0
CIRCLE
  5
87
  8
0
 62
     7
 10
1.550999999999999
 20
0.754
 30
0.0
 40
0.032
  0
CIRCLE
  5
88
  8
0
 62
     7
 10
1.550999999999999
 20
0.654
 30
0.0
 40
0.032
  0
CIRCLE
  5
89
  8
0
 62
     7
 10
1.450999999999999
 20
0.754
 30
0.0
 40
0.032
  0
CIRCLE
  5
8A
  8
0
 62
     7
 10
1.450999999999999
 20
0.654
 30
0.0
 40
0.032
  0
CIRCLE
  5
8B
  8
0
 62
     7
 10
1.3509999999999991
 20
0.754
 30
0.0
 40
0.032
  0
CIRCLE
  5
8C
  8
0
 62
     7
 10
1.3509999999999991
 20
0.654
 30
0.0
 40
0.032
  0
CIRCLE
  5
8D
  8
0
 62
     7
 10
1.250999999999999
 20
0.754
 30
0.0
 40
0.032
  0
CIRCLE
  5
8E
  8
0
 62
     7
 10
1.250999999999999
 20
0.654
 30
0.0
 40
0.032
  0
CIRCLE
  5
8F
  8
0
 62
     7
 10
1.151
 20
0.754
 30
0.0
 40
0.032
  0
CIRCLE
  5
90
  8
0
 62
     7
 10
1.151
 20
0.654
 30
0.0
 40
0.032
  0
CIRCLE
  5
91
  8
0
 62
     7
 10
1.050999999999999
 20
0.754
 30
0.0
 40
0.032
  0
CIRCLE
  5
92
  8
0
 62
     7
 10
1.050999999999999
 20
0.654
 30
0.0
 40
0.032
  0
CIRCLE
  5
93
  8
0
 62
     7
 10
0.9509999999999999
 20
0.754
 30
0.0
 40
0.032
  0
CIRCLE
  5
94
  8
0
 62
     7
 10
0.9509999999999999
 20
0.654
 30
0.0
 40
0.032
  0
CIRCLE
  5
95
  8
0
 62
     7
 10
0.8509999999999999
 20
0.754
 30
0.0
 40
0.032
  0
CIRCLE
  5
96
  8
0
 62
     7
 10
0.8509999999999999
 20
0.654
 30
0.0
 40
0.032
  0
CIRCLE
  5
97
  8
0
 62
     7
 10
0.7509999999999999
 20
0.754
 30
0.0
 40
0.032
  0
CIRCLE
  5
98
  8
0
 62
     7
 10
0.7509999999999999
 20
0.654
 30
0.0
 40
0.032
  0
CIRCLE
  5
99
  8
0
 62
     7
 10
0.6509999999999999
 20
0.754
 30
0.0
 40
0.032
  0
CIRCLE
  5
9A
  8
0
 62
     7
 10
0.6509999999999999
 20
0.654
 30
0.0
 40
0.032
  0
CIRCLE
  5
9B
  8
0
 62
     7
 10
0.5510000000000001
 20
0.754
 30
0.0
 40
0.032
  0
CIRCLE
  5
9C
  8
0
 62
     7
 10
0.5510000000000001
 20
0.654
 30
0.0
 40
0.032
  0
CIRCLE
  5
9D
  8
0
 62
     7
 10
0.451
 20
0.754
 30
0.0
 40
0.032
  0
CIRCLE
  5
9E
  8
0
 62
     7
 10
0.451
 20
0.654
 30
0.0
 40
0.032
  0
LINE
  5
9F
  8
0
 62
     7
 10
1.845999999999999
 20
0.8740000000000001
 30
0.0
 11
1.845999999999999
 21
0.534
 31
0.0
  0
LINE
  5
A0
  8
0
 62
     7
 10
0.256
 20
0.534
 30
0.0
 11
1.845999999999999
 21
0.534
 31
0.0
  0
LINE
  5
A1
  8
0
 62
     7
 10
0.256
 20
0.534
 30
0.0
 11
0.256
 21
0.8740000000000001
 31
0.0
  0
LINE
  5
A2
  8
0
 62
     7
 10
1.845999999999999
 20
0.8740000000000001
 30
0.0
 11
0.256
 21
0.8740000000000001
 31
0.0
  0
LINE
  5
A3
  8
0
 62
     7
 10
0.273
 20
0.382
 30
0.0
 11
0.329
 21
0.382
 31
0.0
  0
LINE
  5
A4
  8
0
 62
     7
 10
0.329
 20
0.382
 30
0.0
 11
0.329
 21
0.326
 31
0.0
  0
LINE
  5
A5
  8
0
 62
     7
 10
0.329
 20
0.326
 30
0.0
 11
0.273
 21
0.326
 31
0.0
  0
LINE
  5
A6
  8
0
 62
     7
 10
0.273
 20
0.326
 30
0.0
 11
0.273
 21
0.382
 31
0.0
  0
CIRCLE
  5
A7
  8
0
 62
     7
 10
0.301
 20
0.454
 30
0.0
 40
0.028
  0
LINE
  5
A8
  8
0
 62
     7
 10
0.338
 20
0.304
 30
0.0
 11
0.264
 21
0.304
 31
0.0
  0
LINE
  5
A9
  8
0
 62
     7
 10
0.264
 20
0.304
 30
0.0
 11
0.239
 21
0.329
 31
0.0
  0
LINE
  5
AA
  8
0
 62
     7
 10
0.239
 20
0.329
 30
0.0
 11
0.239
 21
0.479
 31
0.0
  0
LINE
  5
AB
  8
0
 62
     7
 10
0.239
 20
0.479
 30
0.0
 11
0.264
 21
0.504
 31
0.0
  0
LINE
  5
AC
  8
0
 62
     7
 10
0.264
 20
0.504
 30
0.0
 11
0.338
 21
0.504
 31
0.0
  0
LINE
  5
AD
  8
0
 62
     7
 10
0.338
 20
0.504
 30
0.0
 11
0.363
 21
0.479
 31
0.0
  0
LINE
  5
AE
  8
0
 62
     7
 10
0.363
 20
0.479
 30
0.0
 11
0.363
 21
0.329
 31
0.0
  0
LINE
  5
AF
  8
0
 62
     7
 10
0.363
 20
0.329
 30
0.0
 11
0.338
 21
0.304
 31
0.0
  0
LINE
  5
B0
  8
0
 62
     7
 10
0.379
 20
0.304
 30
0.0
 11
0.347
 21
0.304
 31
0.0
  0
LINE
  5
B1
  8
0
 62
     7
 10
0.363
 20
0.288
 30
0.0
 11
0.363
 21
0.32
 31
0.0
  0
LINE
  5
B2
  8
0
 62
     7
 10
0.285
 20
0.393
 30
0.0
 11
0.277
 21
0.385
 31
0.0
  0
LINE
  5
B3
  8
0
 62
     7
 10
0.277
 20
0.385
 30
0.0
 11
0.277
 21
0.368
 31
0.0
  0
LINE
  5
B4
  8
0
 62
     7
 10
0.277
 20
0.368
 30
0.0
 11
0.285
 21
0.36
 31
0.0
  0
LINE
  5
B5
  8
0
 62
     7
 10
0.285
 20
0.36
 30
0.0
 11
0.319
 21
0.36
 31
0.0
  0
LINE
  5
B6
  8
0
 62
     7
 10
0.319
 20
0.36
 30
0.0
 11
0.327
 21
0.368
 31
0.0
  0
LINE
  5
B7
  8
0
 62
     7
 10
0.327
 20
0.368
 30
0.0
 11
0.327
 21
0.385
 31
0.0
  0
LINE
  5
B8
  8
0
 62
     7
 10
0.327
 20
0.385
 30
0.0
 11
0.319
 21
0.393
 31
0.0
  0
LINE
  5
B9
  8
0
 62
     7
 10
0.285
 20
0.418
 30
0.0
 11
0.277
 21
0.4270000000000001
 31
0.0
  0
LINE
  5
BA
  8
0
 62
     7
 10
0.277
 20
0.4270000000000001
 30
0.0
 11
0.327
 21
0.4270000000000001
 31
0.0
  0
LINE
  5
BB
  8
0
 62
     7
 10
0.327
 20
0.418
 30
0.0
 11
0.327
 21
0.435
 31
0.0
  0
CIRCLE
  5
BC
  8
0
 62
     7
 10
0.426
 20
0.354
 30
0.0
 40
0.028
  0
CIRCLE
  5
BD
  8
0
 62
     7
 10
0.426
 20
0.454
 30
0.0
 40
0.028
  0
LINE
  5
BE
  8
0
 62
     7
 10
0.4560000000000001
 20
0.304
 30
0.0
 11
0.396
 21
0.304
 31
0.0
  0
LINE
  5
BF
  8
0
 62
     7
 10
0.396
 20
0.304
 30
0.0
 11
0.376
 21
0.324
 31
0.0
  0
LINE
  5
C0
  8
0
 62
     7
 10
0.376
 20
0.324
 30
0.0
 11
0.376
 21
0.484
 31
0.0
  0
LINE
  5
C1
  8
0
 62
     7
 10
0.376
 20
0.484
 30
0.0
 11
0.396
 21
0.504
 31
0.0
  0
LINE
  5
C2
  8
0
 62
     7
 10
0.396
 20
0.504
 30
0.0
 11
0.4560000000000001
 21
0.504
 31
0.0
  0
LINE
  5
C3
  8
0
 62
     7
 10
0.4560000000000001
 20
0.504
 30
0.0
 11
0.4760000000000001
 21
0.484
 31
0.0
  0
LINE
  5
C4
  8
0
 62
     7
 10
0.4760000000000001
 20
0.484
 30
0.0
 11
0.4760000000000001
 21
0.324
 31
0.0
  0
LINE
  5
C5
  8
0
 62
     7
 10
0.4760000000000001
 20
0.324
 30
0.0
 11
0.4560000000000001
 21
0.304
 31
0.0
  0
LINE
  5
C6
  8
0
 62
     7
 10
0.408
 20
0.396
 30
0.0
 11
0.4
 21
0.3879999999999999
 31
0.0
  0
LINE
  5
C7
  8
0
 62
     7
 10
0.4
 20
0.3879999999999999
 30
0.0
 11
0.4
 21
0.371
 31
0.0
  0
LINE
  5
C8
  8
0
 62
     7
 10
0.4
 20
0.371
 30
0.0
 11
0.408
 21
0.363
 31
0.0
  0
LINE
  5
C9
  8
0
 62
     7
 10
0.408
 20
0.363
 30
0.0
 11
0.442
 21
0.363
 31
0.0
  0
LINE
  5
CA
  8
0
 62
     7
 10
0.442
 20
0.363
 30
0.0
 11
0.45
 21
0.371
 31
0.0
  0
LINE
  5
CB
  8
0
 62
     7
 10
0.45
 20
0.371
 30
0.0
 11
0.45
 21
0.3879999999999999
 31
0.0
  0
LINE
  5
CC
  8
0
 62
     7
 10
0.45
 20
0.3879999999999999
 30
0.0
 11
0.442
 21
0.396
 31
0.0
  0
LINE
  5
CD
  8
0
 62
     7
 10
0.408
 20
0.413
 30
0.0
 11
0.4
 21
0.4210000000000001
 31
0.0
  0
LINE
  5
CE
  8
0
 62
     7
 10
0.4
 20
0.4210000000000001
 30
0.0
 11
0.4
 21
0.4379999999999999
 31
0.0
  0
LINE
  5
CF
  8
0
 62
     7
 10
0.4
 20
0.4379999999999999
 30
0.0
 11
0.408
 21
0.446
 31
0.0
  0
LINE
  5
D0
  8
0
 62
     7
 10
0.408
 20
0.446
 30
0.0
 11
0.417
 21
0.446
 31
0.0
  0
LINE
  5
D1
  8
0
 62
     7
 10
0.417
 20
0.446
 30
0.0
 11
0.425
 21
0.4379999999999999
 31
0.0
  0
LINE
  5
D2
  8
0
 62
     7
 10
0.425
 20
0.4379999999999999
 30
0.0
 11
0.425
 21
0.4210000000000001
 31
0.0
  0
LINE
  5
D3
  8
0
 62
     7
 10
0.425
 20
0.4210000000000001
 30
0.0
 11
0.433
 21
0.413
 31
0.0
  0
LINE
  5
D4
  8
0
 62
     7
 10
0.433
 20
0.413
 30
0.0
 11
0.45
 21
0.413
 31
0.0
  0
LINE
  5
D5
  8
0
 62
     7
 10
0.45
 20
0.413
 30
0.0
 11
0.45
 21
0.446
 31
0.0
  0
TEXT
  5
D7
  8
0
 10
0.8925299479166667
 20
-0.3399866948430585
 30
0.0
 40
0.047975
  1
MicaBOB -- mechanical (top side)
  7
ARIAL
  0
TEXT
  5
D8
  8
0
 10
0.8925299479166667
 20
-0.4119491948430585
 30
0.0
 40
0.047975
  1
bozotronics
  7
ARIAL
  0
TEXT
  5
D9
  8
0
 10
0.8925299479166667
 20
-0.4839116948430585
 30
0.0
 40
0.047975
  1
MSchippling   5/2/2006
  7
ARIAL
  0
ENDSEC
  0
EOF
