  0
SECTION
  2
HEADER
  9
$ACADVER
  1
AC1015
  9
$ACADMAINTVER
 70
    13
  9
$DWGCODEPAGE
  3
ANSI_1252
  9
$INSBASE
 10
0.0
 20
0.0
 30
0.0
  9
$EXTMIN
 10
-7.287500009999999
 20
-4.66848721335324
 30
-0.00000001
  9
$EXTMAX
 10
-2.692332532992016
 20
5.50870230592795
 30
0.00000002
  9
$LIMMIN
 10
-7.74
 20
-5.29
  9
$LIMMAX
 10
0.7599999999999998
 20
5.709999999999999
  9
$ORTHOMODE
 70
     0
  9
$REGENMODE
 70
     1
  9
$FILLMODE
 70
     1
  9
$QTEXTMODE
 70
     0
  9
$MIRRTEXT
 70
     1
  9
$LTSCALE
 40
1.0
  9
$ATTMODE
 70
     1
  9
$TEXTSIZE
 40
0.125
  9
$TRACEWID
 40
0.05
  9
$TEXTSTYLE
  7
Standard
  9
$CLAYER
  8
0
  9
$CELTYPE
  6
ByLayer
  9
$CECOLOR
 62
     7
  9
$CELTSCALE
 40
1.0
  9
$DISPSILH
 70
     0
  9
$DIMSCALE
 40
1.0
  9
$DIMASZ
 40
0.18
  9
$DIMEXO
 40
0.0625
  9
$DIMDLI
 40
0.38
  9
$DIMRND
 40
0.0
  9
$DIMDLE
 40
0.0
  9
$DIMEXE
 40
0.18
  9
$DIMTP
 40
0.0
  9
$DIMTM
 40
0.0
  9
$DIMTXT
 40
0.125
  9
$DIMCEN
 40
0.09
  9
$DIMTSZ
 40
0.0
  9
$DIMTOL
 70
     0
  9
$DIMLIM
 70
     0
  9
$DIMTIH
 70
     1
  9
$DIMTOH
 70
     1
  9
$DIMSE1
 70
     0
  9
$DIMSE2
 70
     0
  9
$DIMTAD
 70
     0
  9
$DIMZIN
 70
     0
  9
$DIMBLK
  1

  9
$DIMASO
 70
     1
  9
$DIMSHO
 70
     1
  9
$DIMPOST
  1

  9
$DIMAPOST
  1

  9
$DIMALT
 70
     0
  9
$DIMALTD
 70
     2
  9
$DIMALTF
 40
25.4
  9
$DIMLFAC
 40
1.0
  9
$DIMTOFL
 70
     0
  9
$DIMTVP
 40
0.0
  9
$DIMTIX
 70
     0
  9
$DIMSOXD
 70
     0
  9
$DIMSAH
 70
     0
  9
$DIMBLK1
  1

  9
$DIMBLK2
  1

  9
$DIMSTYLE
  2
Standard
  9
$DIMCLRD
 70
     0
  9
$DIMCLRE
 70
     0
  9
$DIMCLRT
 70
     0
  9
$DIMTFAC
 40
1.0
  9
$DIMGAP
 40
0.09
  9
$DIMJUST
 70
     0
  9
$DIMSD1
 70
     0
  9
$DIMSD2
 70
     0
  9
$DIMTOLJ
 70
     1
  9
$DIMTZIN
 70
     0
  9
$DIMALTZ
 70
     0
  9
$DIMALTTZ
 70
     0
  9
$DIMUPT
 70
     0
  9
$DIMDEC
 70
     3
  9
$DIMTDEC
 70
     4
  9
$DIMALTU
 70
     2
  9
$DIMALTTD
 70
     2
  9
$DIMTXSTY
  7
Standard
  9
$DIMAUNIT
 70
     1
  9
$DIMADEC
 70
     0
  9
$DIMALTRND
 40
0.0
  9
$DIMAZIN
 70
     0
  9
$DIMDSEP
 70
    46
  9
$DIMATFIT
 70
     3
  9
$DIMFRAC
 70
     0
  9
$DIMLDRBLK
  1

  9
$DIMLUNIT
 70
     4
  9
$DIMLWD
 70
    -2
  9
$DIMLWE
 70
    -2
  9
$DIMTMOVE
 70
     0
  9
$LUNITS
 70
     2
  9
$LUPREC
 70
     3
  9
$SKETCHINC
 40
0.1
  9
$FILLETRAD
 40
0.5
  9
$AUNITS
 70
     0
  9
$AUPREC
 70
     2
  9
$MENU
  1
.
  9
$ELEVATION
 40
0.0
  9
$PELEVATION
 40
0.0
  9
$THICKNESS
 40
0.0
  9
$LIMCHECK
 70
     0
  9
$CHAMFERA
 40
0.25
  9
$CHAMFERB
 40
0.25
  9
$CHAMFERC
 40
0.0
  9
$CHAMFERD
 40
0.0
  9
$SKPOLY
 70
     0
  9
$TDCREATE
 40
2458402.637839097
  9
$TDUCREATE
 40
2458402.887839097
  9
$TDUPDATE
 40
2458402.637839097
  9
$TDUUPDATE
 40
2458402.887839097
  9
$TDINDWG
 40
0.0000050694
  9
$TDUSRTIMER
 40
0.0000050694
  9
$USRTIMER
 70
     1
  9
$ANGBASE
 50
0.0
  9
$ANGDIR
 70
     0
  9
$PDMODE
 70
     0
  9
$PDSIZE
 40
0.0
  9
$PLINEWID
 40
0.0
  9
$SPLFRAME
 70
     0
  9
$SPLINETYPE
 70
     6
  9
$SPLINESEGS
 70
     8
  9
$HANDSEED
  5
167
  9
$SURFTAB1
 70
     6
  9
$SURFTAB2
 70
     6
  9
$SURFTYPE
 70
     6
  9
$SURFU
 70
     6
  9
$SURFV
 70
     6
  9
$UCSBASE
  2

  9
$UCSNAME
  2

  9
$UCSORG
 10
0.0
 20
0.0
 30
0.0
  9
$UCSXDIR
 10
1.0
 20
0.0
 30
0.0
  9
$UCSYDIR
 10
0.0
 20
1.0
 30
0.0
  9
$UCSORTHOREF
  2

  9
$UCSORTHOVIEW
 70
     0
  9
$UCSORGTOP
 10
0.0
 20
0.0
 30
0.0
  9
$UCSORGBOTTOM
 10
0.0
 20
0.0
 30
0.0
  9
$UCSORGLEFT
 10
0.0
 20
0.0
 30
0.0
  9
$UCSORGRIGHT
 10
0.0
 20
0.0
 30
0.0
  9
$UCSORGFRONT
 10
0.0
 20
0.0
 30
0.0
  9
$UCSORGBACK
 10
0.0
 20
0.0
 30
0.0
  9
$PUCSBASE
  2

  9
$PUCSNAME
  2

  9
$PUCSORG
 10
0.0
 20
0.0
 30
0.0
  9
$PUCSXDIR
 10
1.0
 20
0.0
 30
0.0
  9
$PUCSYDIR
 10
0.0
 20
1.0
 30
0.0
  9
$PUCSORTHOREF
  2

  9
$PUCSORTHOVIEW
 70
     0
  9
$PUCSORGTOP
 10
0.0
 20
0.0
 30
0.0
  9
$PUCSORGBOTTOM
 10
0.0
 20
0.0
 30
0.0
  9
$PUCSORGLEFT
 10
0.0
 20
0.0
 30
0.0
  9
$PUCSORGRIGHT
 10
0.0
 20
0.0
 30
0.0
  9
$PUCSORGFRONT
 10
0.0
 20
0.0
 30
0.0
  9
$PUCSORGBACK
 10
0.0
 20
0.0
 30
0.0
  9
$USERI1
 70
     0
  9
$USERI2
 70
     0
  9
$USERI3
 70
     0
  9
$USERI4
 70
     0
  9
$USERI5
 70
     0
  9
$USERR1
 40
0.0
  9
$USERR2
 40
0.0
  9
$USERR3
 40
0.0
  9
$USERR4
 40
0.0
  9
$USERR5
 40
0.0
  9
$WORLDVIEW
 70
     1
  9
$SHADEDGE
 70
     3
  9
$SHADEDIF
 70
    70
  9
$TILEMODE
 70
     1
  9
$MAXACTVP
 70
    64
  9
$PINSBASE
 10
0.0
 20
0.0
 30
0.0
  9
$PLIMCHECK
 70
     0
  9
$PEXTMIN
 10
1.000000000000000E+20
 20
1.000000000000000E+20
 30
1.000000000000000E+20
  9
$PEXTMAX
 10
-1.000000000000000E+20
 20
-1.000000000000000E+20
 30
-1.000000000000000E+20
  9
$PLIMMIN
 10
0.0
 20
0.0
  9
$PLIMMAX
 10
12.0
 20
9.0
  9
$UNITMODE
 70
     0
  9
$VISRETAIN
 70
     1
  9
$PLINEGEN
 70
     0
  9
$PSLTSCALE
 70
     1
  9
$TREEDEPTH
 70
  3020
  9
$CMLSTYLE
  2
Standard
  9
$CMLJUST
 70
     0
  9
$CMLSCALE
 40
1.0
  9
$PROXYGRAPHICS
 70
     1
  9
$MEASUREMENT
 70
     0
  9
$CELWEIGHT
370
    -1
  9
$ENDCAPS
280
     0
  9
$JOINSTYLE
280
     0
  9
$LWDISPLAY
290
     0
  9
$INSUNITS
 70
     0
  9
$HYPERLINKBASE
  1

  9
$STYLESHEET
  1

  9
$XEDIT
290
     1
  9
$CEPSNTYPE
380
     0
  9
$PSTYLEMODE
290
     1
  9
$FINGERPRINTGUID
  2
{620913BF-C25E-46F0-A170-EA10121A78D3}
  9
$VERSIONGUID
  2
{0CBBB969-943F-499C-9AA3-E5B8F28B055C}
  9
$EXTNAMES
290
     1
  9
$PSVPSCALE
 40
0.0
  9
$OLESTARTUP
290
     0
  0
ENDSEC
  0
SECTION
  2
CLASSES
  0
CLASS
  1
ACDBDICTIONARYWDFLT
  2
AcDbDictionaryWithDefault
  3
AutoCAD 2000
 90
        0
280
     0
281
     0
  0
CLASS
  1
ACDBPLACEHOLDER
  2
AcDbPlaceHolder
  3
AutoCAD 2000
 90
        0
280
     0
281
     0
  0
CLASS
  1
LAYOUT
  2
AcDbLayout
  3
AutoCAD 2000
 90
        0
280
     0
281
     0
  0
CLASS
  1
DICTIONARYVAR
  2
AcDbDictionaryVar
  3
AutoCAD 2000
 90
        0
280
     0
281
     0
  0
ENDSEC
  0
SECTION
  2
TABLES
  0
TABLE
  2
VPORT
  5
8
330
0
100
AcDbSymbolTable
 70
     1
  0
VPORT
  5
13
330
8
100
AcDbSymbolTableRecord
100
AcDbViewportTableRecord
  2
*Active
 70
     0
 10
0.0
 20
0.0
 11
1.0
 21
1.0
 12
-7.36
 22
-2.435
 13
0.0
 23
0.0
 14
1.0
 24
1.0
 15
0.0
 25
0.0
 16
0.0
 26
0.0
 36
1.0
 17
0.0
 27
0.0
 37
0.0
 40
5.709999999999999
 41
0.1330998248686515
 42
50.0
 43
0.0
 44
0.0
 50
0.0
 51
0.0
 71
     0
 72
   100
 73
     1
 74
     1
 75
     0
 76
     0
 77
     0
 78
     0
281
     0
 65
     1
110
0.0
120
0.0
130
0.0
111
1.0
121
0.0
131
0.0
112
0.0
122
1.0
132
0.0
 79
     0
146
0.0
  0
ENDTAB
  0
TABLE
  2
LTYPE
  5
5
330
0
100
AcDbSymbolTable
 70
    40
  0
LTYPE
  5
14
330
5
100
AcDbSymbolTableRecord
100
AcDbLinetypeTableRecord
  2
ByBlock
 70
     0
  3

 72
    65
 73
     0
 40
0.0
  0
LTYPE
  5
15
330
5
100
AcDbSymbolTableRecord
100
AcDbLinetypeTableRecord
  2
ByLayer
 70
     0
  3

 72
    65
 73
     0
 40
0.0
  0
LTYPE
  5
16
330
5
100
AcDbSymbolTableRecord
100
AcDbLinetypeTableRecord
  2
Continuous
 70
     0
  3
Solid line
 72
    65
 73
     0
 40
0.0
  0
LTYPE
  5
28
330
5
100
AcDbSymbolTableRecord
100
AcDbLinetypeTableRecord
  2
HIDDEN
 70
     0
  3
_ _ _ _ _ _ _ _ _ _ _ _ _ _ 
 72
    65
 73
     2
 40
0.375
 49
0.25
 74
     0
 49
-0.125
 74
     0
  0
LTYPE
  5
29
330
5
100
AcDbSymbolTableRecord
100
AcDbLinetypeTableRecord
  2
DASHED
 70
     0
  3
__ __ __ __ __ __ __ __ __ 
 72
    65
 73
     2
 40
0.75
 49
0.5
 74
     0
 49
-0.25
 74
     0
  0
LTYPE
  5
2A
330
5
100
AcDbSymbolTableRecord
100
AcDbLinetypeTableRecord
  2
CENTER
 70
     0
  3
____ _ ____ _ ____ _ ____ _ 
 72
    65
 73
     4
 40
2.0
 49
1.25
 74
     0
 49
-0.25
 74
     0
 49
0.25
 74
     0
 49
-0.25
 74
     0
  0
LTYPE
  5
2B
330
5
100
AcDbSymbolTableRecord
100
AcDbLinetypeTableRecord
  2
PHANTOM
 70
     0
  3
_____ _ _ _____ _ _ _____ _ _ 
 72
    65
 73
     6
 40
2.5
 49
1.25
 74
     0
 49
-0.25
 74
     0
 49
0.25
 74
     0
 49
-0.25
 74
     0
 49
0.25
 74
     0
 49
-0.25
 74
     0
  0
LTYPE
  5
2C
330
5
100
AcDbSymbolTableRecord
100
AcDbLinetypeTableRecord
  2
DOT
 70
     0
  3
...........................
 72
    65
 73
     2
 40
0.25
 49
0.0
 74
     0
 49
-0.25
 74
     0
  0
LTYPE
  5
2D
330
5
100
AcDbSymbolTableRecord
100
AcDbLinetypeTableRecord
  2
DASHDOT
 70
     0
  3
__ . __ . __ . __ . __ . __ . 
 72
    65
 73
     4
 40
1.0
 49
0.5
 74
     0
 49
-0.25
 74
     0
 49
0.0
 74
     0
 49
-0.25
 74
     0
  0
LTYPE
  5
2E
330
5
100
AcDbSymbolTableRecord
100
AcDbLinetypeTableRecord
  2
DIVIDE
 70
     0
  3
__ . . __ . . __ . . __ . . 
 72
    65
 73
     6
 40
1.25
 49
0.5
 74
     0
 49
-0.25
 74
     0
 49
0.0
 74
     0
 49
-0.25
 74
     0
 49
0.0
 74
     0
 49
-0.25
 74
     0
  0
LTYPE
  5
2F
330
5
100
AcDbSymbolTableRecord
100
AcDbLinetypeTableRecord
  2
BORDER
 70
     0
  3
__ __ . __ __ . __ __ . __ __ .
 72
    65
 73
     6
 40
1.75
 49
0.5
 74
     0
 49
-0.25
 74
     0
 49
0.5
 74
     0
 49
-0.25
 74
     0
 49
0.0
 74
     0
 49
-0.25
 74
     0
  0
LTYPE
  5
30
330
5
100
AcDbSymbolTableRecord
100
AcDbLinetypeTableRecord
  2
BORDER2
 70
     0
  3
Border (.5x) __.__.__.__.__.__.
 72
    65
 73
     6
 40
0.875
 49
0.25
 74
     0
 49
-0.125
 74
     0
 49
0.25
 74
     0
 49
-0.125
 74
     0
 49
0.0
 74
     0
 49
-0.125
 74
     0
  0
LTYPE
  5
31
330
5
100
AcDbSymbolTableRecord
100
AcDbLinetypeTableRecord
  2
BORDERX2
 70
     0
  3
Border (2x) ____  ____  .  ____
 72
    65
 73
     6
 40
3.5
 49
1.0
 74
     0
 49
-0.5
 74
     0
 49
1.0
 74
     0
 49
-0.5
 74
     0
 49
0.0
 74
     0
 49
-0.5
 74
     0
  0
LTYPE
  5
32
330
5
100
AcDbSymbolTableRecord
100
AcDbLinetypeTableRecord
  2
CENTER2
 70
     0
  3
Center (.5x) ___ _ ___ _ ___ _ 
 72
    65
 73
     4
 40
1.125
 49
0.7500000000000001
 74
     0
 49
-0.125
 74
     0
 49
0.125
 74
     0
 49
-0.125
 74
     0
  0
LTYPE
  5
33
330
5
100
AcDbSymbolTableRecord
100
AcDbLinetypeTableRecord
  2
CENTERX2
 70
     0
  3
Center (2x) ________  __  _____
 72
    65
 73
     4
 40
4.0
 49
2.5
 74
     0
 49
-0.5
 74
     0
 49
0.5
 74
     0
 49
-0.5
 74
     0
  0
LTYPE
  5
34
330
5
100
AcDbSymbolTableRecord
100
AcDbLinetypeTableRecord
  2
DASHDOT2
 70
     0
  3
Dash dot (.5x) _._._._._._._._.
 72
    65
 73
     4
 40
0.5
 49
0.25
 74
     0
 49
-0.125
 74
     0
 49
0.0
 74
     0
 49
-0.125
 74
     0
  0
LTYPE
  5
35
330
5
100
AcDbSymbolTableRecord
100
AcDbLinetypeTableRecord
  2
DASHDOTX2
 70
     0
  3
Dash dot (2x) ____  .  ____  . 
 72
    65
 73
     4
 40
2.0
 49
1.0
 74
     0
 49
-0.5
 74
     0
 49
0.0
 74
     0
 49
-0.5
 74
     0
  0
LTYPE
  5
36
330
5
100
AcDbSymbolTableRecord
100
AcDbLinetypeTableRecord
  2
DASHED2
 70
     0
  3
Dashed (.5x) _ _ _ _ _ _ _ _ _ 
 72
    65
 73
     2
 40
0.375
 49
0.25
 74
     0
 49
-0.125
 74
     0
  0
LTYPE
  5
37
330
5
100
AcDbSymbolTableRecord
100
AcDbLinetypeTableRecord
  2
DASHEDX2
 70
     0
  3
Dashed (2x) ____  ____  ____  _
 72
    65
 73
     2
 40
1.5
 49
1.0
 74
     0
 49
-0.5
 74
     0
  0
LTYPE
  5
38
330
5
100
AcDbSymbolTableRecord
100
AcDbLinetypeTableRecord
  2
DIVIDE2
 70
     0
  3
Divide (.5x) __..__..__..__..__
 72
    65
 73
     6
 40
0.625
 49
0.25
 74
     0
 49
-0.125
 74
     0
 49
0.0
 74
     0
 49
-0.125
 74
     0
 49
0.0
 74
     0
 49
-0.125
 74
     0
  0
LTYPE
  5
39
330
5
100
AcDbSymbolTableRecord
100
AcDbLinetypeTableRecord
  2
DIVIDEX2
 70
     0
  3
Divide (2x) ________  .  .  ___
 72
    65
 73
     6
 40
2.5
 49
1.0
 74
     0
 49
-0.5
 74
     0
 49
0.0
 74
     0
 49
-0.5
 74
     0
 49
0.0
 74
     0
 49
-0.5
 74
     0
  0
LTYPE
  5
3A
330
5
100
AcDbSymbolTableRecord
100
AcDbLinetypeTableRecord
  2
DOT2
 70
     0
  3
Dot (.5x) .....................
 72
    65
 73
     2
 40
0.125
 49
0.0
 74
     0
 49
-0.125
 74
     0
  0
LTYPE
  5
3B
330
5
100
AcDbSymbolTableRecord
100
AcDbLinetypeTableRecord
  2
DOTX2
 70
     0
  3
Dot (2x) .  .  .  .  .  .  .  .
 72
    65
 73
     2
 40
0.5
 49
0.0
 74
     0
 49
-0.5
 74
     0
  0
LTYPE
  5
3C
330
5
100
AcDbSymbolTableRecord
100
AcDbLinetypeTableRecord
  2
HIDDEN2
 70
     0
  3
Hidden (.5x) _ _ _ _ _ _ _ _ _ 
 72
    65
 73
     2
 40
0.1875
 49
0.125
 74
     0
 49
-0.0625
 74
     0
  0
LTYPE
  5
3D
330
5
100
AcDbSymbolTableRecord
100
AcDbLinetypeTableRecord
  2
HIDDENX2
 70
     0
  3
Hidden (2x) ____ ____ ____ ____
 72
    65
 73
     2
 40
0.75
 49
0.5
 74
     0
 49
-0.25
 74
     0
  0
LTYPE
  5
3E
330
5
100
AcDbSymbolTableRecord
100
AcDbLinetypeTableRecord
  2
PHANTOM2
 70
     0
  3
Phantom (.5x) ___ _ _ ___ _ _ _
 72
    65
 73
     6
 40
1.25
 49
0.6250000000000001
 74
     0
 49
-0.125
 74
     0
 49
0.125
 74
     0
 49
-0.125
 74
     0
 49
0.125
 74
     0
 49
-0.125
 74
     0
  0
LTYPE
  5
3F
330
5
100
AcDbSymbolTableRecord
100
AcDbLinetypeTableRecord
  2
PHANTOMX2
 70
     0
  3
Phantom (2x) ____________    __
 72
    65
 73
     6
 40
5.0
 49
2.5
 74
     0
 49
-0.5
 74
     0
 49
0.5
 74
     0
 49
-0.5
 74
     0
 49
0.5
 74
     0
 49
-0.5
 74
     0
  0
LTYPE
  5
40
330
5
100
AcDbSymbolTableRecord
100
AcDbLinetypeTableRecord
  2
DOTS
 70
     0
  3
Dots - - - - - - - - - - - - - 
 72
    65
 73
     2
 40
0.1
 49
0.05
 74
     0
 49
-0.05
 74
     0
  0
LTYPE
  5
41
330
5
100
AcDbSymbolTableRecord
100
AcDbLinetypeTableRecord
  2
ACAD_ISO02W100
 70
     0
  3
__ __ __ __ __ __ __ __ __ __ _
 72
    65
 73
     2
 40
15.0
 49
12.0
 74
     0
 49
-3.0
 74
     0
  0
LTYPE
  5
42
330
5
100
AcDbSymbolTableRecord
100
AcDbLinetypeTableRecord
  2
ACAD_ISO03W100
 70
     0
  3
__    __    __    __    __    _
 72
    65
 73
     2
 40
30.0
 49
12.0
 74
     0
 49
-18.0
 74
     0
  0
LTYPE
  5
43
330
5
100
AcDbSymbolTableRecord
100
AcDbLinetypeTableRecord
  2
ACAD_ISO04W100
 70
     0
  3
____ . ____ . ____ . ____ . ___
 72
    65
 73
     4
 40
30.5
 49
24.0
 74
     0
 49
-3.0
 74
     0
 49
0.5
 74
     0
 49
-3.0
 74
     0
  0
LTYPE
  5
44
330
5
100
AcDbSymbolTableRecord
100
AcDbLinetypeTableRecord
  2
ACAD_ISO05W100
 70
     0
  3
____ .. ____ .. ____ .. ____ ..
 72
    65
 73
     6
 40
34.0
 49
24.0
 74
     0
 49
-3.0
 74
     0
 49
0.5
 74
     0
 49
-3.0
 74
     0
 49
0.5
 74
     0
 49
-3.0
 74
     0
  0
LTYPE
  5
45
330
5
100
AcDbSymbolTableRecord
100
AcDbLinetypeTableRecord
  2
ACAD_ISO06W100
 70
     0
  3
____ ... ____ ... ____ ... ____
 72
    65
 73
     6
 40
34.0
 49
24.0
 74
     0
 49
-3.0
 74
     0
 49
0.5
 74
     0
 49
-3.0
 74
     0
 49
0.5
 74
     0
 49
-3.0
 74
     0
  0
LTYPE
  5
46
330
5
100
AcDbSymbolTableRecord
100
AcDbLinetypeTableRecord
  2
ACAD_ISO07W100
 70
     0
  3
. . . . . . . . . . . . . . . .
 72
    65
 73
     2
 40
3.5
 49
0.5
 74
     0
 49
-3.0
 74
     0
  0
LTYPE
  5
47
330
5
100
AcDbSymbolTableRecord
100
AcDbLinetypeTableRecord
  2
ACAD_ISO08W100
 70
     0
  3
____ __ ____ __ ____ __ ____ __
 72
    65
 73
     4
 40
36.0
 49
24.0
 74
     0
 49
-3.0
 74
     0
 49
6.0
 74
     0
 49
-3.0
 74
     0
  0
LTYPE
  5
48
330
5
100
AcDbSymbolTableRecord
100
AcDbLinetypeTableRecord
  2
ACAD_ISO09W100
 70
     0
  3
____ __ __ ____ __ __ ____ __ _
 72
    65
 73
     6
 40
45.0
 49
24.0
 74
     0
 49
-3.0
 74
     0
 49
6.0
 74
     0
 49
-3.0
 74
     0
 49
6.0
 74
     0
 49
-3.0
 74
     0
  0
LTYPE
  5
49
330
5
100
AcDbSymbolTableRecord
100
AcDbLinetypeTableRecord
  2
ACAD_ISO10W100
 70
     0
  3
__ . __ . __ . __ . __ . __ . _
 72
    65
 73
     4
 40
18.5
 49
12.0
 74
     0
 49
-3.0
 74
     0
 49
0.5
 74
     0
 49
-3.0
 74
     0
  0
LTYPE
  5
4A
330
5
100
AcDbSymbolTableRecord
100
AcDbLinetypeTableRecord
  2
ACAD_ISO11W100
 70
     0
  3
__ __ . __ __ . __ __ . __ __ .
 72
    65
 73
     6
 40
33.5
 49
12.0
 74
     0
 49
-3.0
 74
     0
 49
12.0
 74
     0
 49
-3.0
 74
     0
 49
0.5
 74
     0
 49
-3.0
 74
     0
  0
LTYPE
  5
4B
330
5
100
AcDbSymbolTableRecord
100
AcDbLinetypeTableRecord
  2
ACAD_ISO12W100
 70
     0
  3
__ . . __ . . __ . . __ . . __ 
 72
    65
 73
     6
 40
22.0
 49
12.0
 74
     0
 49
-3.0
 74
     0
 49
0.5
 74
     0
 49
-3.0
 74
     0
 49
0.5
 74
     0
 49
-3.0
 74
     0
  0
LTYPE
  5
4C
330
5
100
AcDbSymbolTableRecord
100
AcDbLinetypeTableRecord
  2
ACAD_ISO13W100
 70
     0
  3
__ __ . . __ __ . . __ __ . . _
 72
    65
 73
     6
 40
33.5
 49
12.0
 74
     0
 49
-3.0
 74
     0
 49
12.0
 74
     0
 49
-3.0
 74
     0
 49
0.5
 74
     0
 49
-3.0
 74
     0
  0
LTYPE
  5
4D
330
5
100
AcDbSymbolTableRecord
100
AcDbLinetypeTableRecord
  2
ACAD_ISO14W100
 70
     0
  3
__ . . . __ . . . __ . . . __ .
 72
    65
 73
     6
 40
22.0
 49
12.0
 74
     0
 49
-3.0
 74
     0
 49
0.5
 74
     0
 49
-3.0
 74
     0
 49
0.5
 74
     0
 49
-3.0
 74
     0
  0
LTYPE
  5
4E
330
5
100
AcDbSymbolTableRecord
100
AcDbLinetypeTableRecord
  2
ACAD_ISO15W100
 70
     0
  3
__ __ . . . __ __ . . . __ __ .
 72
    65
 73
     6
 40
33.5
 49
12.0
 74
     0
 49
-3.0
 74
     0
 49
12.0
 74
     0
 49
-3.0
 74
     0
 49
0.5
 74
     0
 49
-3.0
 74
     0
  0
ENDTAB
  0
TABLE
  2
LAYER
  5
2
330
0
100
AcDbSymbolTable
 70
     4
  0
LAYER
  5
10
330
2
100
AcDbSymbolTableRecord
100
AcDbLayerTableRecord
  2
0
 70
     0
 62
     7
  6
Continuous
370
    -3
390
F
  0
LAYER
  5
4F
330
2
100
AcDbSymbolTableRecord
100
AcDbLayerTableRecord
  2
CUT
 70
     0
 62
     7
  6
Continuous
370
    -3
390
F
  0
LAYER
  5
50
330
2
100
AcDbSymbolTableRecord
100
AcDbLayerTableRecord
  2
HOLES
 70
     0
 62
     7
  6
Continuous
370
    -3
390
F
  0
LAYER
  5
51
330
2
100
AcDbSymbolTableRecord
100
AcDbLayerTableRecord
  2
LAYOUT
 70
     4
 62
     7
  6
Continuous
370
    -3
390
F
  0
ENDTAB
  0
TABLE
  2
STYLE
  5
3
330
0
100
AcDbSymbolTable
 70
     5
  0
STYLE
  5
11
330
3
100
AcDbSymbolTableRecord
100
AcDbTextStyleTableRecord
  2
Standard
 70
     0
 40
0.0
 41
1.0
 50
0.0
 71
     0
 42
0.125
  3
txt
  4

  0
STYLE
  5
52
330
3
100
AcDbSymbolTableRecord
100
AcDbTextStyleTableRecord
  2
ITALIC
 70
     0
 40
0.0
 41
1.0
 50
0.0
 71
     0
 42
0.125
  3
ITALIC
  4

  0
STYLE
  5
53
330
3
100
AcDbSymbolTableRecord
100
AcDbTextStyleTableRecord
  2
SIMPLEX
 70
     0
 40
0.0
 41
1.0
 50
0.0
 71
     0
 42
0.125
  3
SIMPLEX
  4

  0
STYLE
  5
54
330
3
100
AcDbSymbolTableRecord
100
AcDbTextStyleTableRecord
  2
COMPLEX
 70
     0
 40
0.0
 41
1.0
 50
0.0
 71
     0
 42
0.125
  3
COMPLEX
  4

  0
STYLE
  5
59
330
3
100
AcDbSymbolTableRecord
100
AcDbTextStyleTableRecord
  2
ARIAL
 70
     0
 40
0.0
 41
1.0
 50
0.0
 71
     0
 42
0.125
  3
ARIAL.TTF
  4

1001
ACAD
1000
Arial
1071
        0
  0
ENDTAB
  0
TABLE
  2
VIEW
  5
6
330
0
100
AcDbSymbolTable
 70
     0
  0
ENDTAB
  0
TABLE
  2
UCS
  5
7
330
0
100
AcDbSymbolTable
 70
     0
  0
ENDTAB
  0
TABLE
  2
APPID
  5
9
330
0
100
AcDbSymbolTable
 70
     1
  0
APPID
  5
12
330
9
100
AcDbSymbolTableRecord
100
AcDbRegAppTableRecord
  2
ACAD
 70
     0
  0
ENDTAB
  0
TABLE
  2
DIMSTYLE
  5
A
330
0
100
AcDbSymbolTable
 70
     1
100
AcDbDimStyleTable
 71
     0
  0
DIMSTYLE
105
27
330
A
100
AcDbSymbolTableRecord
100
AcDbDimStyleTableRecord
  2
Standard
 70
     0
340
11
  0
ENDTAB
  0
TABLE
  2
BLOCK_RECORD
  5
1
330
0
100
AcDbSymbolTable
 70
     3
  0
BLOCK_RECORD
  5
1F
330
1
100
AcDbSymbolTableRecord
100
AcDbBlockTableRecord
  2
*Model_Space
340
22
  0
BLOCK_RECORD
  5
1B
330
1
100
AcDbSymbolTableRecord
100
AcDbBlockTableRecord
  2
*Paper_Space
340
1E
  0
BLOCK_RECORD
  5
23
330
1
100
AcDbSymbolTableRecord
100
AcDbBlockTableRecord
  2
*Paper_Space0
340
26
  0
BLOCK_RECORD
  5
60
330
1
100
AcDbSymbolTableRecord
100
AcDbBlockTableRecord
  2
CROSS
340
0
102
{BLKREFS
331
67
331
7E
331
C6
331
156
102
}
  0
BLOCK_RECORD
  5
A6
330
1
100
AcDbSymbolTableRecord
100
AcDbBlockTableRecord
  2
LONGARROW
340
0
102
{BLKREFS
331
AB
331
AC
331
B2
331
B3
331
B9
331
BA
331
C0
331
C1
331
CC
331
CD
331
D4
331
D5
331
DA
331
DB
331
E1
331
E2
331
E8
331
E9
331
EF
331
F0
331
F6
331
F7
331
FD
331
FE
331
104
331
105
331
10B
331
10C
331
111
331
112
331
118
331
119
331
11F
331
120
331
126
331
127
331
13A
331
13B
331
142
331
143
331
149
331
14A
331
15B
331
15C
331
162
331
163
102
}
  0
ENDTAB
  0
ENDSEC
  0
SECTION
  2
BLOCKS
  0
BLOCK
  5
20
330
1F
100
AcDbEntity
  8
0
100
AcDbBlockBegin
  2
*Model_Space
 70
     0
 10
0.0
 20
0.0
 30
0.0
  3
*Model_Space
  1

  0
ENDBLK
  5
21
330
1F
100
AcDbEntity
  8
0
100
AcDbBlockEnd
  0
BLOCK
  5
1C
330
1B
100
AcDbEntity
 67
     1
  8
0
100
AcDbBlockBegin
  2
*Paper_Space
 70
     0
 10
0.0
 20
0.0
 30
0.0
  3
*Paper_Space
  1

  0
ENDBLK
  5
1D
330
1B
100
AcDbEntity
 67
     1
  8
0
100
AcDbBlockEnd
  0
BLOCK
  5
24
330
23
100
AcDbEntity
  8
0
100
AcDbBlockBegin
  2
*Paper_Space0
 70
     0
 10
0.0
 20
0.0
 30
0.0
  3
*Paper_Space0
  1

  0
ENDBLK
  5
25
330
23
100
AcDbEntity
  8
0
100
AcDbBlockEnd
  0
BLOCK
  5
65
330
60
100
AcDbEntity
  8
0
 62
     7
100
AcDbBlockBegin
  2
CROSS
 70
     0
 10
0.0
 20
0.0
 30
0.0
  3
CROSS
  1

  0
LINE
  5
61
330
60
100
AcDbEntity
  8
CUT
  6
Continuous
 62
     0
100
AcDbLine
 10
-0.5
 20
0.0
 30
0.0
 11
0.5
 21
0.0
 31
0.0
  0
LINE
  5
62
330
60
100
AcDbEntity
  8
CUT
  6
Continuous
 62
     0
100
AcDbLine
 10
0.0
 20
-0.5
 30
0.0
 11
0.0
 21
0.5
 31
0.0
  0
LINE
  5
63
330
60
100
AcDbEntity
  8
CUT
  6
Continuous
 62
     0
100
AcDbLine
 10
0.5
 20
0.0
 30
0.0
 11
-0.5
 21
0.0
 31
0.0
  0
LINE
  5
64
330
60
100
AcDbEntity
  8
CUT
  6
Continuous
 62
     0
100
AcDbLine
 10
0.0
 20
0.5
 30
0.0
 11
0.0
 21
-0.5
 31
0.0
  0
ENDBLK
  5
66
330
60
100
AcDbEntity
  8
0
 62
     7
100
AcDbBlockEnd
  0
BLOCK
  5
A9
330
A6
100
AcDbEntity
  8
0
 62
     7
100
AcDbBlockBegin
  2
LONGARROW
 70
     0
 10
0.0
 20
0.0
 30
0.0
  3
LONGARROW
  1

  0
LWPOLYLINE
  5
A7
102
{ACAD_REACTORS
330
A8
102
}
330
A6
100
AcDbEntity
  8
CUT
  6
Continuous
 62
     0
100
AcDbPolyline
 90
        3
 70
     1
 43
0.0
 10
0.0
 20
0.0
 10
2.0
 20
-0.25
 10
2.0
 20
0.25
  0
HATCH
  5
A8
330
A6
100
AcDbEntity
  8
CUT
  6
Continuous
 62
     0
100
AcDbHatch
 10
0.0
 20
0.0
 30
0.0
210
0.0
220
0.0
230
1.0
  2
SOLID
 70
     1
 71
     1
 91
        1
 92
        1
 93
        3
 72
     1
 10
0.0
 20
0.0
 11
2.0
 21
-0.25
 72
     1
 10
2.0
 20
-0.25
 11
2.0
 21
0.25
 72
     1
 10
2.0
 20
0.25
 11
0.0
 21
0.0
 97
        1
330
A7
 75
     0
 76
     1
 98
        1
 10
0.0
 20
0.0
  0
ENDBLK
  5
AA
330
A6
100
AcDbEntity
  8
0
 62
     7
100
AcDbBlockEnd
  0
ENDSEC
  0
SECTION
  2
ENTITIES
  0
CIRCLE
  5
55
330
1F
100
AcDbEntity
  8
HOLES
  6
Continuous
 62
     7
100
AcDbCircle
 10
-6.867499999999997
 20
1.9135
 30
0.0
 40
0.045
  0
CIRCLE
  5
56
330
1F
100
AcDbEntity
  8
HOLES
  6
Continuous
 62
     7
100
AcDbCircle
 10
-6.867499999999997
 20
1.285500000000001
 30
0.0
 40
0.045
  0
CIRCLE
  5
57
330
1F
100
AcDbEntity
  8
HOLES
  6
Continuous
 62
     7
100
AcDbCircle
 10
-4.201499999999997
 20
1.285500000000001
 30
0.0
 40
0.045
  0
CIRCLE
  5
58
330
1F
100
AcDbEntity
  8
HOLES
  6
Continuous
 62
     7
100
AcDbCircle
 10
-4.201499999999998
 20
1.9135
 30
0.0
 40
0.045
  0
TEXT
  5
5A
330
1F
100
AcDbEntity
  8
LAYOUT
  6
Continuous
 62
     7
100
AcDbText
 10
-5.761499999999998
 20
1.123500000000001
 30
0.0
 40
0.125
  1
HS755
  7
ARIAL
100
AcDbText
  0
CIRCLE
  5
5B
330
1F
100
AcDbEntity
  8
LAYOUT
  6
DOT
 62
     7
100
AcDbCircle
 10
-6.161499999999999
 20
1.599500000000001
 30
0.0
 40
0.1419999999999999
  0
LINE
  5
5C
330
1F
100
AcDbEntity
  8
LAYOUT
  6
CENTER
 62
     7
100
AcDbLine
 10
-5.973999999999999
 20
1.599500000000001
 30
0.0
 11
-5.769499999999998
 21
1.599500000000001
 31
0.0
  0
LINE
  5
5D
330
1F
100
AcDbEntity
  8
LAYOUT
  6
CENTER
 62
     7
100
AcDbLine
 10
-6.348999999999999
 20
1.599500000000001
 30
0.0
 11
-6.553499999999999
 21
1.599500000000001
 31
0.0
  0
LINE
  5
5E
330
1F
100
AcDbEntity
  8
LAYOUT
  6
CENTER
 62
     7
100
AcDbLine
 10
-6.161499999999999
 20
1.787000000000001
 30
0.0
 11
-6.161499999999999
 21
1.991500000000001
 31
0.0
  0
LINE
  5
5F
330
1F
100
AcDbEntity
  8
LAYOUT
  6
CENTER
 62
     7
100
AcDbLine
 10
-6.161499999999999
 20
1.412000000000001
 30
0.0
 11
-6.161499999999999
 21
1.207500000000001
 31
0.0
  0
INSERT
  5
67
330
1F
100
AcDbEntity
  8
LAYOUT
  6
CENTER
 62
     7
100
AcDbBlockReference
  2
CROSS
 10
-6.161499999999999
 20
1.599500000000001
 30
0.0
 41
0.125
 42
0.125
  0
LINE
  5
68
330
1F
100
AcDbEntity
  8
CUT
  6
Continuous
 62
     7
100
AcDbLine
 10
-6.684999999999999
 20
2.158000000000001
 30
0.0
 11
-6.684999999999997
 21
1.041000000000001
 31
0.0
  0
LINE
  5
69
330
1F
100
AcDbEntity
  8
CUT
  6
Continuous
 62
     7
100
AcDbLine
 10
-6.684999999999997
 20
1.041000000000001
 30
0.0
 11
-4.383999999999998
 21
1.041000000000001
 31
0.0
  0
LINE
  5
6A
330
1F
100
AcDbEntity
  8
CUT
  6
Continuous
 62
     7
100
AcDbLine
 10
-4.383999999999998
 20
1.041000000000001
 30
0.0
 11
-4.383999999999999
 21
2.158000000000001
 31
0.0
  0
LINE
  5
6B
330
1F
100
AcDbEntity
  8
CUT
  6
Continuous
 62
     7
100
AcDbLine
 10
-4.384
 20
2.158
 30
0.0
 11
-6.684999999999999
 21
2.158
 31
0.0
  0
LINE
  5
6C
330
1F
100
AcDbEntity
  8
LAYOUT
  6
Continuous
 62
     7
100
AcDbLine
 10
-6.867499999999998
 20
1.913499999999999
 30
0.0
 11
-4.201499999999997
 21
1.285499999999999
 31
0.0
  0
LINE
  5
6D
330
1F
100
AcDbEntity
  8
LAYOUT
  6
Continuous
 62
     7
100
AcDbLine
 10
-6.867499999999997
 20
1.285500000000001
 30
0.0
 11
-4.201499999999998
 21
1.913499999999999
 31
0.0
  0
LINE
  5
6E
330
1F
100
AcDbEntity
  8
LAYOUT
  6
Continuous
 62
     7
100
AcDbLine
 10
-6.867499999999998
 20
1.913500000000001
 30
0.0
 11
-6.867499999999997
 21
1.285500000000001
 31
0.0
  0
LINE
  5
6F
330
1F
100
AcDbEntity
  8
LAYOUT
  6
Continuous
 62
     7
100
AcDbLine
 10
-6.867499999999997
 20
1.285500000000001
 30
0.0
 11
-4.201499999999997
 21
1.285500000000001
 31
0.0
  0
LINE
  5
70
330
1F
100
AcDbEntity
  8
LAYOUT
  6
Continuous
 62
     7
100
AcDbLine
 10
-4.201499999999998
 20
1.9135
 30
0.0
 11
-6.867499999999997
 21
1.9135
 31
0.0
  0
LINE
  5
71
330
1F
100
AcDbEntity
  8
LAYOUT
  6
Continuous
 62
     7
100
AcDbLine
 10
-4.201499999999997
 20
1.285500000000001
 30
0.0
 11
-4.201499999999998
 21
1.9135
 31
0.0
  0
LINE
  5
72
330
1F
100
AcDbEntity
  8
LAYOUT
  6
Continuous
 62
     7
100
AcDbLine
 10
-6.684999999999997
 20
1.041
 30
0.0
 11
-4.384000000000001
 21
2.158
 31
0.0
  0
LINE
  5
73
330
1F
100
AcDbEntity
  8
LAYOUT
  6
Continuous
 62
     7
100
AcDbLine
 10
-6.684999999999999
 20
2.157999999999999
 30
0.0
 11
-4.383999999999999
 21
1.040999999999999
 31
0.0
  0
CIRCLE
  5
74
330
1F
100
AcDbEntity
  8
HOLES
  6
Continuous
 62
     7
100
AcDbCircle
 10
-6.716499999999999
 20
-0.8014999999999986
 30
0.0
 40
0.045
  0
CIRCLE
  5
75
330
1F
100
AcDbEntity
  8
HOLES
  6
Continuous
 62
     7
100
AcDbCircle
 10
-6.716499999999999
 20
-1.199499999999996
 30
0.0
 40
0.045
  0
CIRCLE
  5
76
330
1F
100
AcDbEntity
  8
HOLES
  6
Continuous
 62
     7
100
AcDbCircle
 10
-4.813499999999999
 20
-1.199499999999998
 30
0.0
 40
0.045
  0
CIRCLE
  5
77
330
1F
100
AcDbEntity
  8
HOLES
  6
Continuous
 62
     7
100
AcDbCircle
 10
-4.813499999999999
 20
-0.8014999999999982
 30
0.0
 40
0.045
  0
TEXT
  5
78
330
1F
100
AcDbEntity
  8
LAYOUT
  6
Continuous
 62
     7
100
AcDbText
 10
-6.047416666666665
 20
-1.341741666666663
 30
0.0
 40
0.125
  1
HS645
  7
ARIAL
100
AcDbText
  0
CIRCLE
  5
79
330
1F
100
AcDbEntity
  8
LAYOUT
  6
DOT
 62
     7
100
AcDbCircle
 10
-6.161499999999999
 20
-1.000499999999998
 30
0.0
 40
0.1419999999999999
  0
LINE
  5
7A
330
1F
100
AcDbEntity
  8
LAYOUT
  6
CENTER
 62
     7
100
AcDbLine
 10
-5.973999999999999
 20
-1.000499999999998
 30
0.0
 11
-5.769499999999998
 21
-1.000499999999998
 31
0.0
  0
LINE
  5
7B
330
1F
100
AcDbEntity
  8
LAYOUT
  6
CENTER
 62
     7
100
AcDbLine
 10
-6.348999999999999
 20
-1.000499999999998
 30
0.0
 11
-6.553499999999999
 21
-1.000499999999998
 31
0.0
  0
LINE
  5
7C
330
1F
100
AcDbEntity
  8
LAYOUT
  6
CENTER
 62
     7
100
AcDbLine
 10
-6.161499999999999
 20
-0.8129999999999984
 30
0.0
 11
-6.161499999999999
 21
-0.6084999999999985
 31
0.0
  0
LINE
  5
7D
330
1F
100
AcDbEntity
  8
LAYOUT
  6
CENTER
 62
     7
100
AcDbLine
 10
-6.161499999999999
 20
-1.187999999999998
 30
0.0
 11
-6.161499999999999
 21
-1.392499999999998
 31
0.0
  0
INSERT
  5
7E
330
1F
100
AcDbEntity
  8
LAYOUT
  6
CENTER
 62
     7
100
AcDbBlockReference
  2
CROSS
 10
-6.161499999999999
 20
-1.000499999999998
 30
0.0
 41
0.125
 42
0.125
  0
LINE
  5
7F
330
1F
100
AcDbEntity
  8
CUT
  6
Continuous
 62
     7
100
AcDbLine
 10
-6.555999999999999
 20
-0.6189999999999982
 30
0.0
 11
-6.555999999999999
 21
-1.381999999999998
 31
0.0
  0
LINE
  5
80
330
1F
100
AcDbEntity
  8
CUT
  6
Continuous
 62
     7
100
AcDbLine
 10
-6.555999999999999
 20
-1.381999999999998
 30
0.0
 11
-4.973999999999999
 21
-1.381999999999998
 31
0.0
  0
LINE
  5
81
330
1F
100
AcDbEntity
  8
CUT
  6
Continuous
 62
     7
100
AcDbLine
 10
-4.973999999999997
 20
-1.381999999999998
 30
0.0
 11
-4.973999999999999
 21
-0.6189999999999987
 31
0.0
  0
LINE
  5
82
330
1F
100
AcDbEntity
  8
CUT
  6
Continuous
 62
     7
100
AcDbLine
 10
-4.973999999999999
 20
-0.6189999999999989
 30
0.0
 11
-6.555999999999999
 21
-0.6189999999999994
 31
0.0
  0
LINE
  5
83
330
1F
100
AcDbEntity
  8
LAYOUT
  6
Continuous
 62
     7
100
AcDbLine
 10
-6.716499999999999
 20
-1.199499999999998
 30
0.0
 11
-6.716499999999999
 21
-0.8014999999999982
 31
0.0
  0
LINE
  5
84
330
1F
100
AcDbEntity
  8
LAYOUT
  6
Continuous
 62
     7
100
AcDbLine
 10
-6.716499999999999
 20
-1.199499999999996
 30
0.0
 11
-4.813499999999999
 21
-1.199499999999998
 31
0.0
  0
LINE
  5
85
330
1F
100
AcDbEntity
  8
LAYOUT
  6
Continuous
 62
     7
100
AcDbLine
 10
-4.813499999999999
 20
-0.8014999999999986
 30
0.0
 11
-6.716499999999999
 21
-0.8014999999999986
 31
0.0
  0
LINE
  5
86
330
1F
100
AcDbEntity
  8
LAYOUT
  6
Continuous
 62
     7
100
AcDbLine
 10
-4.813499999999999
 20
-1.199499999999998
 30
0.0
 11
-4.813499999999999
 21
-0.8014999999999982
 31
0.0
  0
LINE
  5
87
330
1F
100
AcDbEntity
  8
LAYOUT
  6
Continuous
 62
     7
100
AcDbLine
 10
-6.716499999999999
 20
-1.199499999999998
 30
0.0
 11
-4.813499999999999
 21
-0.8014999999999982
 31
0.0
  0
LINE
  5
88
330
1F
100
AcDbEntity
  8
LAYOUT
  6
Continuous
 62
     7
100
AcDbLine
 10
-6.716499999999999
 20
-0.8014999999999986
 30
0.0
 11
-4.813499999999999
 21
-1.199499999999998
 31
0.0
  0
LINE
  5
89
330
1F
100
AcDbEntity
  8
LAYOUT
  6
Continuous
 62
     7
100
AcDbLine
 10
-6.555999999999999
 20
-0.6189999999999994
 30
0.0
 11
-4.973999999999999
 21
-1.381999999999998
 31
0.0
  0
LINE
  5
8A
330
1F
100
AcDbEntity
  8
LAYOUT
  6
Continuous
 62
     7
100
AcDbLine
 10
-6.555999999999999
 20
-1.381999999999998
 30
0.0
 11
-4.973999999999999
 21
-0.6189999999999987
 31
0.0
  0
LINE
  5
8B
330
1F
100
AcDbEntity
  8
LAYOUT
  6
Continuous
 62
     7
100
AcDbLine
 10
-6.161499999999999
 20
1.599500000000001
 30
0.0
 11
-7.099999999999999
 21
1.6
 31
0.0
  0
CIRCLE
  5
8C
330
1F
100
AcDbEntity
  8
HOLES
  6
Continuous
 62
     7
100
AcDbCircle
 10
-7.099999999999999
 20
1.6
 30
0.0
 40
0.1875
  0
LINE
  5
8D
330
1F
100
AcDbEntity
  8
LAYOUT
  6
Continuous
 62
     7
100
AcDbLine
 10
-6.161499999999999
 20
-1.000499999999998
 30
0.0
 11
-7.099999999999999
 21
-1.0
 31
0.0
  0
CIRCLE
  5
8E
330
1F
100
AcDbEntity
  8
HOLES
  6
Continuous
 62
     7
100
AcDbCircle
 10
-7.099999999999999
 20
-1.0
 30
0.0
 40
0.1875
  0
CIRCLE
  5
8F
330
1F
100
AcDbEntity
  8
HOLES
  6
Continuous
 62
     7
100
AcDbCircle
 10
-6.633
 20
-3.24
 30
0.0
 40
0.045
  0
CIRCLE
  5
90
330
1F
100
AcDbEntity
  8
HOLES
  6
Continuous
 62
     7
100
AcDbCircle
 10
-6.633
 20
-3.559999999999998
 30
0.0
 40
0.045
  0
CIRCLE
  5
91
330
1F
100
AcDbEntity
  8
HOLES
  6
Continuous
 62
     7
100
AcDbCircle
 10
-5.098
 20
-3.559999999999998
 30
0.0
 40
0.045
  0
CIRCLE
  5
92
330
1F
100
AcDbEntity
  8
HOLES
  6
Continuous
 62
     7
100
AcDbCircle
 10
-5.098
 20
-3.24
 30
0.0
 40
0.045
  0
TEXT
  5
93
330
1F
100
AcDbEntity
  8
LAYOUT
  6
Continuous
 62
     7
100
AcDbText
 10
-6.104541666666667
 20
-3.707449999999999
 30
0.0
 40
0.125
  1
HS225
  7
ARIAL
100
AcDbText
  0
CIRCLE
  5
94
330
1F
100
AcDbEntity
  8
LAYOUT
  6
DOT
 62
     7
100
AcDbCircle
 10
-6.161
 20
-3.4
 30
0.0
 40
0.12
  0
LINE
  5
95
330
1F
100
AcDbEntity
  8
CUT
  6
Continuous
 62
     7
100
AcDbLine
 10
-6.4935
 20
-3.076999999999999
 30
0.0
 11
-6.4935
 21
-3.722999999999999
 31
0.0
  0
LINE
  5
96
330
1F
100
AcDbEntity
  8
CUT
  6
Continuous
 62
     7
100
AcDbLine
 10
-6.4935
 20
-3.722999999999999
 30
0.0
 11
-5.2375
 21
-3.722999999999999
 31
0.0
  0
LINE
  5
97
330
1F
100
AcDbEntity
  8
CUT
  6
Continuous
 62
     7
100
AcDbLine
 10
-5.2375
 20
-3.723
 30
0.0
 11
-5.2375
 21
-3.076999999999999
 31
0.0
  0
LINE
  5
98
330
1F
100
AcDbEntity
  8
CUT
  6
Continuous
 62
     7
100
AcDbLine
 10
-5.2375
 20
-3.076999999999999
 30
0.0
 11
-6.4935
 21
-3.076999999999999
 31
0.0
  0
LINE
  5
99
330
1F
100
AcDbEntity
  8
LAYOUT
  6
Continuous
 62
     7
100
AcDbLine
 10
-6.633
 20
-3.56
 30
0.0
 11
-6.633
 21
-3.24
 31
0.0
  0
LINE
  5
9A
330
1F
100
AcDbEntity
  8
LAYOUT
  6
Continuous
 62
     7
100
AcDbLine
 10
-6.633
 20
-3.559999999999998
 30
0.0
 11
-5.098
 21
-3.559999999999998
 31
0.0
  0
LINE
  5
9B
330
1F
100
AcDbEntity
  8
LAYOUT
  6
Continuous
 62
     7
100
AcDbLine
 10
-5.098
 20
-3.24
 30
0.0
 11
-6.633
 21
-3.24
 31
0.0
  0
LINE
  5
9C
330
1F
100
AcDbEntity
  8
LAYOUT
  6
Continuous
 62
     7
100
AcDbLine
 10
-5.098
 20
-3.559999999999998
 30
0.0
 11
-5.098
 21
-3.24
 31
0.0
  0
LINE
  5
9D
330
1F
100
AcDbEntity
  8
LAYOUT
  6
Continuous
 62
     7
100
AcDbLine
 10
-6.633
 20
-3.24
 30
0.0
 11
-5.098
 21
-3.559999999999998
 31
0.0
  0
LINE
  5
9E
330
1F
100
AcDbEntity
  8
LAYOUT
  6
Continuous
 62
     7
100
AcDbLine
 10
-5.098
 20
-3.24
 30
0.0
 11
-6.633
 21
-3.559999999999998
 31
0.0
  0
LINE
  5
9F
330
1F
100
AcDbEntity
  8
LAYOUT
  6
Continuous
 62
     7
100
AcDbLine
 10
-6.4935
 20
-3.076999999999999
 30
0.0
 11
-5.2375
 21
-3.723
 31
0.0
  0
LINE
  5
A0
330
1F
100
AcDbEntity
  8
LAYOUT
  6
Continuous
 62
     7
100
AcDbLine
 10
-5.2375
 20
-3.076999999999999
 30
0.0
 11
-6.4935
 21
-3.722999999999999
 31
0.0
  0
TEXT
  5
A1
330
1F
100
AcDbEntity
  8
LAYOUT
  6
Continuous
 62
     7
100
AcDbText
 10
-6.089461932584644
 20
-4.48098721335324
 30
0.0
 40
0.125
  1
1.535"
  7
ARIAL
 72
     1
 11
-5.8655
 21
-4.41848721335324
 31
0.0
100
AcDbText
 73
     2
  0
LINE
  5
A2
330
1F
100
AcDbEntity
  8
LAYOUT
  6
Continuous
 62
     7
100
AcDbLine
 10
-5.098
 20
-3.684999999999998
 30
0.0
 11
-5.098
 21
-4.66848721335324
 31
0.0
  0
LINE
  5
A3
330
1F
100
AcDbEntity
  8
LAYOUT
  6
Continuous
 62
     7
100
AcDbLine
 10
-6.633
 20
-3.684999999999998
 30
0.0
 11
-6.633
 21
-4.66848721335324
 31
0.0
  0
LINE
  5
A4
330
1F
100
AcDbEntity
  8
LAYOUT
  6
Continuous
 62
     7
100
AcDbLine
 10
-5.098
 20
-4.41848721335324
 30
0.0
 11
-5.529557087153197
 21
-4.41848721335324
 31
0.0
  0
LINE
  5
A5
330
1F
100
AcDbEntity
  8
LAYOUT
  6
Continuous
 62
     7
100
AcDbLine
 10
-6.633
 20
-4.41848721335324
 30
0.0
 11
-6.201442912846804
 21
-4.41848721335324
 31
0.0
  0
INSERT
  5
AB
330
1F
100
AcDbEntity
  8
LAYOUT
  6
Continuous
 62
     7
100
AcDbBlockReference
  2
LONGARROW
 10
-5.098
 20
-4.41848721335324
 30
0.0
 41
0.125
 42
0.125
 50
180.0
  0
INSERT
  5
AC
330
1F
100
AcDbEntity
  8
LAYOUT
  6
Continuous
 62
     7
100
AcDbBlockReference
  2
LONGARROW
 10
-6.633
 20
-4.41848721335324
 30
0.0
 41
0.125
 42
0.125
  0
TEXT
  5
AD
330
1F
100
AcDbEntity
  8
LAYOUT
  6
Continuous
 62
     7
100
AcDbText
 10
-6.100295265917977
 20
-4.283070546686573
 30
0.0
 40
0.125
  1
1.256"
  7
ARIAL
 72
     1
 11
-5.876333333333334
 21
-4.220570546686573
 31
0.0
100
AcDbText
 73
     2
  0
LINE
  5
AE
330
1F
100
AcDbEntity
  8
LAYOUT
  6
Continuous
 62
     7
100
AcDbLine
 10
-5.2375
 20
-3.848
 30
0.0
 11
-5.2375
 21
-4.470570546686572
 31
0.0
  0
LINE
  5
AF
330
1F
100
AcDbEntity
  8
LAYOUT
  6
Continuous
 62
     7
100
AcDbLine
 10
-6.4935
 20
-3.847999999999999
 30
0.0
 11
-6.4935
 21
-4.470570546686572
 31
0.0
  0
LINE
  5
B0
330
1F
100
AcDbEntity
  8
LAYOUT
  6
Continuous
 62
     7
100
AcDbLine
 10
-5.2375
 20
-4.220570546686572
 30
0.0
 11
-5.54039042048653
 21
-4.220570546686572
 31
0.0
  0
LINE
  5
B1
330
1F
100
AcDbEntity
  8
LAYOUT
  6
Continuous
 62
     7
100
AcDbLine
 10
-6.4935
 20
-4.220570546686572
 30
0.0
 11
-6.212276246180137
 21
-4.220570546686572
 31
0.0
  0
INSERT
  5
B2
330
1F
100
AcDbEntity
  8
LAYOUT
  6
Continuous
 62
     7
100
AcDbBlockReference
  2
LONGARROW
 10
-5.2375
 20
-4.220570546686572
 30
0.0
 41
0.125
 42
0.125
 50
180.0
  0
INSERT
  5
B3
330
1F
100
AcDbEntity
  8
LAYOUT
  6
Continuous
 62
     7
100
AcDbBlockReference
  2
LONGARROW
 10
-6.4935
 20
-4.220570546686572
 30
0.0
 41
0.125
 42
0.125
  0
TEXT
  5
B4
330
1F
100
AcDbEntity
  8
LAYOUT
  6
Continuous
 62
     7
100
AcDbText
 10
-4.46487859925131
 20
-3.454945546686574
 30
0.0
 40
0.125
  1
0.646"
  7
ARIAL
 72
     1
 11
-4.240916666666667
 21
-3.392445546686574
 31
0.0
100
AcDbText
 73
     2
  0
LINE
  5
B5
330
1F
100
AcDbEntity
  8
LAYOUT
  6
Continuous
 62
     7
100
AcDbLine
 10
-5.1125
 20
-3.076999999999999
 30
0.0
 11
-3.9875
 21
-3.076999999999999
 31
0.0
  0
LINE
  5
B6
330
1F
100
AcDbEntity
  8
LAYOUT
  6
Continuous
 62
     7
100
AcDbLine
 10
-5.1125
 20
-3.723
 30
0.0
 11
-3.987499999999999
 21
-3.723
 31
0.0
  0
LINE
  5
B7
330
1F
100
AcDbEntity
  8
LAYOUT
  6
Continuous
 62
     7
100
AcDbLine
 10
-4.2375
 20
-3.076999999999999
 30
0.0
 11
-4.2375
 21
-2.701999999999999
 31
0.0
  0
LINE
  5
B8
330
1F
100
AcDbEntity
  8
LAYOUT
  6
Continuous
 62
     7
100
AcDbLine
 10
-4.237499999999999
 20
-3.723
 30
0.0
 11
-4.237499999999999
 21
-4.098
 31
0.0
  0
INSERT
  5
B9
330
1F
100
AcDbEntity
  8
LAYOUT
  6
Continuous
 62
     7
100
AcDbBlockReference
  2
LONGARROW
 10
-4.2375
 20
-3.076999999999999
 30
0.0
 41
0.125
 42
0.125
 50
90.00000000000007
  0
INSERT
  5
BA
330
1F
100
AcDbEntity
  8
LAYOUT
  6
Continuous
 62
     7
100
AcDbBlockReference
  2
LONGARROW
 10
-4.237499999999999
 20
-3.723
 30
0.0
 41
0.125
 42
0.125
 50
270.0
  0
TEXT
  5
BB
330
1F
100
AcDbEntity
  8
LAYOUT
  6
Continuous
 62
     7
100
AcDbText
 10
-4.990920265917977
 20
-3.454945546686574
 30
0.0
 40
0.125
  1
0.320"
  7
ARIAL
 72
     1
 11
-4.766958333333334
 21
-3.392445546686574
 31
0.0
100
AcDbText
 73
     2
  0
LINE
  5
BC
330
1F
100
AcDbEntity
  8
LAYOUT
  6
Continuous
 62
     7
100
AcDbLine
 10
-4.973
 20
-3.24
 30
0.0
 11
-4.511750000000001
 21
-3.24
 31
0.0
  0
LINE
  5
BD
330
1F
100
AcDbEntity
  8
LAYOUT
  6
Continuous
 62
     7
100
AcDbLine
 10
-4.973
 20
-3.559999999999998
 30
0.0
 11
-4.511750000000001
 21
-3.559999999999998
 31
0.0
  0
LINE
  5
BE
330
1F
100
AcDbEntity
  8
LAYOUT
  6
Continuous
 62
     7
100
AcDbLine
 10
-4.761750000000001
 20
-3.24
 30
0.0
 11
-4.761750000000001
 21
-2.865
 31
0.0
  0
LINE
  5
BF
330
1F
100
AcDbEntity
  8
LAYOUT
  6
Continuous
 62
     7
100
AcDbLine
 10
-4.761750000000001
 20
-3.559999999999998
 30
0.0
 11
-4.761750000000001
 21
-3.934999999999998
 31
0.0
  0
INSERT
  5
C0
330
1F
100
AcDbEntity
  8
LAYOUT
  6
Continuous
 62
     7
100
AcDbBlockReference
  2
LONGARROW
 10
-4.761750000000001
 20
-3.24
 30
0.0
 41
0.125
 42
0.125
 50
90.00000000000007
  0
INSERT
  5
C1
330
1F
100
AcDbEntity
  8
LAYOUT
  6
Continuous
 62
     7
100
AcDbBlockReference
  2
LONGARROW
 10
-4.761750000000001
 20
-3.559999999999998
 30
0.0
 41
0.125
 42
0.125
 50
270.0
  0
LINE
  5
C2
330
1F
100
AcDbEntity
  8
LAYOUT
  6
CENTER
 62
     7
100
AcDbLine
 10
-5.9735
 20
-3.4
 30
0.0
 11
-5.791
 21
-3.4
 31
0.0
  0
LINE
  5
C3
330
1F
100
AcDbEntity
  8
LAYOUT
  6
CENTER
 62
     7
100
AcDbLine
 10
-6.3485
 20
-3.4
 30
0.0
 11
-6.531
 21
-3.4
 31
0.0
  0
LINE
  5
C4
330
1F
100
AcDbEntity
  8
LAYOUT
  6
CENTER
 62
     7
100
AcDbLine
 10
-6.161
 20
-3.2125
 30
0.0
 11
-6.161
 21
-3.03
 31
0.0
  0
LINE
  5
C5
330
1F
100
AcDbEntity
  8
LAYOUT
  6
CENTER
 62
     7
100
AcDbLine
 10
-6.161
 20
-3.5875
 30
0.0
 11
-6.161
 21
-3.77
 31
0.0
  0
INSERT
  5
C6
330
1F
100
AcDbEntity
  8
LAYOUT
  6
CENTER
 62
     7
100
AcDbBlockReference
  2
CROSS
 10
-6.161
 20
-3.4
 30
0.0
 41
0.125
 42
0.125
  0
TEXT
  5
C7
330
1F
100
AcDbEntity
  8
LAYOUT
  6
Continuous
 62
     7
100
AcDbText
 10
-6.615512937666335
 20
-3.923279951954368
 30
0.0
 40
0.125
  1
0.472"
  7
ARIAL
 72
     1
 11
-6.391551005081692
 21
-3.860779951954368
 31
0.0
100
AcDbText
 73
     2
  0
LINE
  5
C8
330
1F
100
AcDbEntity
  8
LAYOUT
  6
Continuous
 62
     7
100
AcDbLine
 10
-6.161
 20
-3.525
 30
0.0
 11
-6.161
 21
-4.272238285287702
 31
0.0
  0
LINE
  5
C9
330
1F
100
AcDbEntity
  8
LAYOUT
  6
Continuous
 62
     7
100
AcDbLine
 10
-6.633
 20
-3.684999999999998
 30
0.0
 11
-6.633
 21
-4.272238285287702
 31
0.0
  0
LINE
  5
CA
330
1F
100
AcDbEntity
  8
LAYOUT
  6
Continuous
 62
     7
100
AcDbLine
 10
-6.161
 20
-4.022238285287702
 30
0.0
 11
-5.786
 21
-4.022238285287702
 31
0.0
  0
LINE
  5
CB
330
1F
100
AcDbEntity
  8
LAYOUT
  6
Continuous
 62
     7
100
AcDbLine
 10
-6.633
 20
-4.022238285287702
 30
0.0
 11
-7.008
 21
-4.022238285287702
 31
0.0
  0
INSERT
  5
CC
330
1F
100
AcDbEntity
  8
LAYOUT
  6
Continuous
 62
     7
100
AcDbBlockReference
  2
LONGARROW
 10
-6.161
 20
-4.022238285287702
 30
0.0
 41
0.125
 42
0.125
  0
INSERT
  5
CD
330
1F
100
AcDbEntity
  8
LAYOUT
  6
Continuous
 62
     7
100
AcDbBlockReference
  2
LONGARROW
 10
-6.633
 20
-4.022238285287702
 30
0.0
 41
0.125
 42
0.125
 50
180.0
  0
LINE
  5
CE
330
1F
100
AcDbEntity
  8
LAYOUT
  6
Continuous
 62
     7
100
AcDbLine
 10
-6.161
 20
-3.4
 30
0.0
 11
-7.1
 21
-3.4
 31
0.0
  0
CIRCLE
  5
CF
330
1F
100
AcDbEntity
  8
HOLES
  6
Continuous
 62
     7
100
AcDbCircle
 10
-7.1
 20
-3.4
 30
0.0
 40
0.125
  0
TEXT
  5
D0
330
1F
100
AcDbEntity
  8
LAYOUT
  6
Continuous
 62
     7
100
AcDbText
 10
-6.856961932584644
 20
-2.8025
 30
0.0
 40
0.125
  1
0.939"
  7
ARIAL
 72
     1
 11
-6.633
 21
-2.74
 31
0.0
100
AcDbText
 73
     2
  0
LINE
  5
D1
330
1F
100
AcDbEntity
  8
LAYOUT
  6
Continuous
 62
     7
100
AcDbLine
 10
-7.1
 20
-3.275
 30
0.0
 11
-7.1
 21
-2.590000000000001
 31
0.0
  0
LINE
  5
D2
330
1F
100
AcDbEntity
  8
LAYOUT
  6
Continuous
 62
     7
100
AcDbLine
 10
-6.161
 20
-3.275
 30
0.0
 11
-6.161
 21
-2.590000000000001
 31
0.0
  0
LINE
  5
D3
330
1F
100
AcDbEntity
  8
LAYOUT
  6
Continuous
 62
     7
100
AcDbLine
 10
-7.1
 20
-2.840000000000001
 30
0.0
 11
-6.161
 21
-2.840000000000001
 31
0.0
  0
INSERT
  5
D4
330
1F
100
AcDbEntity
  8
LAYOUT
  6
Continuous
 62
     7
100
AcDbBlockReference
  2
LONGARROW
 10
-7.1
 20
-2.840000000000001
 30
0.0
 41
0.125
 42
0.125
  0
INSERT
  5
D5
330
1F
100
AcDbEntity
  8
LAYOUT
  6
Continuous
 62
     7
100
AcDbBlockReference
  2
LONGARROW
 10
-6.161
 20
-2.840000000000001
 30
0.0
 41
0.125
 42
0.125
 50
180.0
  0
TEXT
  5
D6
330
1F
100
AcDbEntity
  8
LAYOUT
  6
Continuous
 62
     7
100
AcDbText
 10
-6.823961932584643
 20
-0.3624999999999998
 30
0.0
 40
0.125
  1
0.939"
  7
ARIAL
 72
     1
 11
-6.599999999999999
 21
-0.2999999999999998
 31
0.0
100
AcDbText
 73
     2
  0
LINE
  5
D7
330
1F
100
AcDbEntity
  8
LAYOUT
  6
Continuous
 62
     7
100
AcDbLine
 10
-7.099999999999999
 20
-0.875
 30
0.0
 11
-7.099999999999999
 21
-0.1500000000000005
 31
0.0
  0
LINE
  5
D8
330
1F
100
AcDbEntity
  8
LAYOUT
  6
Continuous
 62
     7
100
AcDbLine
 10
-6.161499999999999
 20
-0.8754999999999984
 30
0.0
 11
-6.161499999999999
 21
-0.1500000000000005
 31
0.0
  0
LINE
  5
D9
330
1F
100
AcDbEntity
  8
LAYOUT
  6
Continuous
 62
     7
100
AcDbLine
 10
-7.099999999999999
 20
-0.4000000000000005
 30
0.0
 11
-6.161499999999999
 21
-0.4000000000000005
 31
0.0
  0
INSERT
  5
DA
330
1F
100
AcDbEntity
  8
LAYOUT
  6
Continuous
 62
     7
100
AcDbBlockReference
  2
LONGARROW
 10
-7.099999999999999
 20
-0.4000000000000005
 30
0.0
 41
0.125
 42
0.125
  0
INSERT
  5
DB
330
1F
100
AcDbEntity
  8
LAYOUT
  6
Continuous
 62
     7
100
AcDbBlockReference
  2
LONGARROW
 10
-6.161499999999999
 20
-0.4000000000000005
 30
0.0
 41
0.125
 42
0.125
 50
180.0
  0
TEXT
  5
DC
330
1F
100
AcDbEntity
  8
LAYOUT
  6
Continuous
 62
     7
100
AcDbText
 10
-5.988961932584642
 20
-1.843335986456637
 30
0.0
 40
0.125
  1
1.582"
  7
ARIAL
 72
     1
 11
-5.764999999999998
 21
-1.780835986456637
 31
0.0
100
AcDbText
 73
     2
  0
LINE
  5
DD
330
1F
100
AcDbEntity
  8
LAYOUT
  6
Continuous
 62
     7
100
AcDbLine
 10
-4.973999999999997
 20
-1.506999999999998
 30
0.0
 11
-4.973999999999997
 21
-2.030835986456637
 31
0.0
  0
LINE
  5
DE
330
1F
100
AcDbEntity
  8
LAYOUT
  6
Continuous
 62
     7
100
AcDbLine
 10
-6.555999999999999
 20
-1.506999999999998
 30
0.0
 11
-6.555999999999999
 21
-2.030835986456637
 31
0.0
  0
LINE
  5
DF
330
1F
100
AcDbEntity
  8
LAYOUT
  6
Continuous
 62
     7
100
AcDbLine
 10
-4.973999999999997
 20
-1.780835986456637
 30
0.0
 11
-5.429057087153195
 21
-1.780835986456637
 31
0.0
  0
LINE
  5
E0
330
1F
100
AcDbEntity
  8
LAYOUT
  6
Continuous
 62
     7
100
AcDbLine
 10
-6.555999999999999
 20
-1.780835986456637
 30
0.0
 11
-6.100942912846802
 21
-1.780835986456637
 31
0.0
  0
INSERT
  5
E1
330
1F
100
AcDbEntity
  8
LAYOUT
  6
Continuous
 62
     7
100
AcDbBlockReference
  2
LONGARROW
 10
-4.973999999999997
 20
-1.780835986456637
 30
0.0
 41
0.125
 42
0.125
 50
180.0
  0
INSERT
  5
E2
330
1F
100
AcDbEntity
  8
LAYOUT
  6
Continuous
 62
     7
100
AcDbBlockReference
  2
LONGARROW
 10
-6.555999999999999
 20
-1.780835986456637
 30
0.0
 41
0.125
 42
0.125
  0
TEXT
  5
E3
330
1F
100
AcDbEntity
  8
LAYOUT
  6
Continuous
 62
     7
100
AcDbText
 10
-5.988961932584638
 20
-2.015649999999999
 30
0.0
 40
0.125
  1
1.903"
  7
ARIAL
 72
     1
 11
-5.764999999999995
 21
-1.953149999999999
 31
0.0
100
AcDbText
 73
     2
  0
LINE
  5
E4
330
1F
100
AcDbEntity
  8
LAYOUT
  6
Continuous
 62
     7
100
AcDbLine
 10
-4.813499999999999
 20
-1.324499999999998
 30
0.0
 11
-4.813499999999999
 21
-2.203149999999999
 31
0.0
  0
LINE
  5
E5
330
1F
100
AcDbEntity
  8
LAYOUT
  6
Continuous
 62
     7
100
AcDbLine
 10
-6.71649999999999
 20
-1.324499999999996
 30
0.0
 11
-6.71649999999999
 21
-2.203149999999999
 31
0.0
  0
LINE
  5
E6
330
1F
100
AcDbEntity
  8
LAYOUT
  6
Continuous
 62
     7
100
AcDbLine
 10
-4.813499999999999
 20
-1.953149999999999
 30
0.0
 11
-5.429057087153191
 21
-1.953149999999999
 31
0.0
  0
LINE
  5
E7
330
1F
100
AcDbEntity
  8
LAYOUT
  6
Continuous
 62
     7
100
AcDbLine
 10
-6.71649999999999
 20
-1.953149999999999
 30
0.0
 11
-6.100942912846798
 21
-1.953149999999999
 31
0.0
  0
INSERT
  5
E8
330
1F
100
AcDbEntity
  8
LAYOUT
  6
Continuous
 62
     7
100
AcDbBlockReference
  2
LONGARROW
 10
-4.813499999999999
 20
-1.953149999999999
 30
0.0
 41
0.125
 42
0.125
 50
180.0
  0
INSERT
  5
E9
330
1F
100
AcDbEntity
  8
LAYOUT
  6
Continuous
 62
     7
100
AcDbBlockReference
  2
LONGARROW
 10
-6.71649999999999
 20
-1.953149999999999
 30
0.0
 41
0.125
 42
0.125
  0
TEXT
  5
EA
330
1F
100
AcDbEntity
  8
LAYOUT
  6
Continuous
 62
     7
100
AcDbText
 10
-6.676441094251308
 20
-1.568645833333332
 30
0.0
 40
0.125
  1
0.555"
  7
ARIAL
 72
     1
 11
-6.452479161666665
 21
-1.506145833333332
 31
0.0
100
AcDbText
 73
     2
  0
LINE
  5
EB
330
1F
100
AcDbEntity
  8
LAYOUT
  6
Continuous
 62
     7
100
AcDbLine
 10
-6.161499999999999
 20
-1.125499999999998
 30
0.0
 11
-6.161499999999999
 21
-1.746566597653552
 31
0.0
  0
LINE
  5
EC
330
1F
100
AcDbEntity
  8
LAYOUT
  6
Continuous
 62
     7
100
AcDbLine
 10
-6.71649999999999
 20
-1.207832988267768
 30
0.0
 11
-6.71649999999999
 21
-1.746566597653552
 31
0.0
  0
LINE
  5
ED
330
1F
100
AcDbEntity
  8
LAYOUT
  6
Continuous
 62
     7
100
AcDbLine
 10
-6.161499999999999
 20
-1.496566597653552
 30
0.0
 11
-5.786499999999999
 21
-1.496566597653552
 31
0.0
  0
LINE
  5
EE
330
1F
100
AcDbEntity
  8
LAYOUT
  6
Continuous
 62
     7
100
AcDbLine
 10
-6.71649999999999
 20
-1.496566597653552
 30
0.0
 11
-7.09149999999999
 21
-1.496566597653552
 31
0.0
  0
INSERT
  5
EF
330
1F
100
AcDbEntity
  8
LAYOUT
  6
Continuous
 62
     7
100
AcDbBlockReference
  2
LONGARROW
 10
-6.161499999999999
 20
-1.496566597653552
 30
0.0
 41
0.125
 42
0.125
  0
INSERT
  5
F0
330
1F
100
AcDbEntity
  8
LAYOUT
  6
Continuous
 62
     7
100
AcDbBlockReference
  2
LONGARROW
 10
-6.71649999999999
 20
-1.496566597653552
 30
0.0
 41
0.125
 42
0.125
 50
180.0
  0
TEXT
  5
F1
330
1F
100
AcDbEntity
  8
LAYOUT
  6
Continuous
 62
     7
100
AcDbText
 10
-4.223961932584643
 20
-1.0625
 30
0.0
 40
0.125
  1
0.763"
  7
ARIAL
 72
     1
 11
-4.0
 21
-1.0
 31
0.0
100
AcDbText
 73
     2
  0
LINE
  5
F2
330
1F
100
AcDbEntity
  8
LAYOUT
  6
Continuous
 62
     7
100
AcDbLine
 10
-4.848999999999999
 20
-0.6189999999999989
 30
0.0
 11
-3.85
 21
-0.6189999999999989
 31
0.0
  0
LINE
  5
F3
330
1F
100
AcDbEntity
  8
LAYOUT
  6
Continuous
 62
     7
100
AcDbLine
 10
-4.848999999999997
 20
-1.381999999999999
 30
0.0
 11
-3.849999999999999
 21
-1.381999999999999
 31
0.0
  0
LINE
  5
F4
330
1F
100
AcDbEntity
  8
LAYOUT
  6
Continuous
 62
     7
100
AcDbLine
 10
-4.1
 20
-0.6189999999999989
 30
0.0
 11
-4.1
 21
-0.90625
 31
0.0
  0
LINE
  5
F5
330
1F
100
AcDbEntity
  8
LAYOUT
  6
Continuous
 62
     7
100
AcDbLine
 10
-4.099999999999999
 20
-1.381999999999999
 30
0.0
 11
-4.099999999999999
 21
-1.09375
 31
0.0
  0
INSERT
  5
F6
330
1F
100
AcDbEntity
  8
LAYOUT
  6
Continuous
 62
     7
100
AcDbBlockReference
  2
LONGARROW
 10
-4.1
 20
-0.6189999999999989
 30
0.0
 41
0.125
 42
0.125
 50
270.0
  0
INSERT
  5
F7
330
1F
100
AcDbEntity
  8
LAYOUT
  6
Continuous
 62
     7
100
AcDbBlockReference
  2
LONGARROW
 10
-4.099999999999999
 20
-1.381999999999999
 30
0.0
 41
0.125
 42
0.125
 50
90.00000000000005
  0
TEXT
  5
F8
330
1F
100
AcDbEntity
  8
LAYOUT
  6
Continuous
 62
     7
100
AcDbText
 10
-4.723961932584643
 20
-1.0625
 30
0.0
 40
0.125
  1
0.398"
  7
ARIAL
 72
     1
 11
-4.5
 21
-1.0
 31
0.0
100
AcDbText
 73
     2
  0
LINE
  5
F9
330
1F
100
AcDbEntity
  8
LAYOUT
  6
Continuous
 62
     7
100
AcDbLine
 10
-4.688499999999998
 20
-0.8014999999999982
 30
0.0
 11
-4.312699999999999
 21
-0.8014999999999982
 31
0.0
  0
LINE
  5
FA
330
1F
100
AcDbEntity
  8
LAYOUT
  6
Continuous
 62
     7
100
AcDbLine
 10
-4.688499999999998
 20
-1.199499999999998
 30
0.0
 11
-4.312699999999999
 21
-1.199499999999998
 31
0.0
  0
LINE
  5
FB
330
1F
100
AcDbEntity
  8
LAYOUT
  6
Continuous
 62
     7
100
AcDbLine
 10
-4.562699999999999
 20
-0.8014999999999982
 30
0.0
 11
-4.562699999999999
 21
-0.4264999999999983
 31
0.0
  0
LINE
  5
FC
330
1F
100
AcDbEntity
  8
LAYOUT
  6
Continuous
 62
     7
100
AcDbLine
 10
-4.562699999999999
 20
-1.199499999999998
 30
0.0
 11
-4.562699999999999
 21
-1.574499999999998
 31
0.0
  0
INSERT
  5
FD
330
1F
100
AcDbEntity
  8
LAYOUT
  6
Continuous
 62
     7
100
AcDbBlockReference
  2
LONGARROW
 10
-4.562699999999999
 20
-0.8014999999999982
 30
0.0
 41
0.125
 42
0.125
 50
90.00000000000007
  0
INSERT
  5
FE
330
1F
100
AcDbEntity
  8
LAYOUT
  6
Continuous
 62
     7
100
AcDbBlockReference
  2
LONGARROW
 10
-4.562699999999999
 20
-1.199499999999998
 30
0.0
 41
0.125
 42
0.125
 50
270.0
  0
TEXT
  5
FF
330
1F
100
AcDbEntity
  8
LAYOUT
  6
Continuous
 62
     7
100
AcDbText
 10
-3.602122834339738
 20
1.537
 30
0.0
 40
0.125
  1
1.117"
  7
ARIAL
 72
     1
 11
-3.384
 21
1.5995
 31
0.0
100
AcDbText
 73
     2
  0
LINE
  5
100
330
1F
100
AcDbEntity
  8
LAYOUT
  6
Continuous
 62
     7
100
AcDbLine
 10
-4.259000000000001
 20
2.158
 30
0.0
 11
-3.134000000000001
 21
2.158
 31
0.0
  0
LINE
  5
101
330
1F
100
AcDbEntity
  8
LAYOUT
  6
Continuous
 62
     7
100
AcDbLine
 10
-4.259000000000003
 20
1.041000000000001
 30
0.0
 11
-3.133999999999999
 21
1.041000000000001
 31
0.0
  0
LINE
  5
102
330
1F
100
AcDbEntity
  8
LAYOUT
  6
Continuous
 62
     7
100
AcDbLine
 10
-3.384000000000001
 20
2.158
 30
0.0
 11
-3.384
 21
1.69325
 31
0.0
  0
LINE
  5
103
330
1F
100
AcDbEntity
  8
LAYOUT
  6
Continuous
 62
     7
100
AcDbLine
 10
-3.383999999999999
 20
1.041000000000001
 30
0.0
 11
-3.384
 21
1.50575
 31
0.0
  0
INSERT
  5
104
330
1F
100
AcDbEntity
  8
LAYOUT
  6
Continuous
 62
     7
100
AcDbBlockReference
  2
LONGARROW
 10
-3.384000000000001
 20
2.158
 30
0.0
 41
0.125
 42
0.125
 50
270.0
  0
INSERT
  5
105
330
1F
100
AcDbEntity
  8
LAYOUT
  6
Continuous
 62
     7
100
AcDbBlockReference
  2
LONGARROW
 10
-3.383999999999999
 20
1.041000000000001
 30
0.0
 41
0.125
 42
0.125
 50
90.00000000000005
  0
TEXT
  5
106
330
1F
100
AcDbEntity
  8
LAYOUT
  6
Continuous
 62
     7
100
AcDbText
 10
-4.123961932584642
 20
1.5375
 30
0.0
 40
0.125
  1
0.628"
  7
ARIAL
 72
     1
 11
-3.899999999999999
 21
1.6
 31
0.0
100
AcDbText
 73
     2
  0
LINE
  5
107
330
1F
100
AcDbEntity
  8
LAYOUT
  6
Continuous
 62
     7
100
AcDbLine
 10
-4.076499999999997
 20
1.9135
 30
0.0
 11
-3.710299999999999
 21
1.9135
 31
0.0
  0
LINE
  5
108
330
1F
100
AcDbEntity
  8
LAYOUT
  6
Continuous
 62
     7
100
AcDbLine
 10
-4.076499999999996
 20
1.285500000000001
 30
0.0
 11
-3.710299999999998
 21
1.285500000000001
 31
0.0
  0
LINE
  5
109
330
1F
100
AcDbEntity
  8
LAYOUT
  6
Continuous
 62
     7
100
AcDbLine
 10
-3.960299999999999
 20
1.9135
 30
0.0
 11
-3.960299999999999
 21
2.2885
 31
0.0
  0
LINE
  5
10A
330
1F
100
AcDbEntity
  8
LAYOUT
  6
Continuous
 62
     7
100
AcDbLine
 10
-3.960299999999998
 20
1.285500000000001
 30
0.0
 11
-3.960299999999998
 21
0.9105000000000016
 31
0.0
  0
INSERT
  5
10B
330
1F
100
AcDbEntity
  8
LAYOUT
  6
Continuous
 62
     7
100
AcDbBlockReference
  2
LONGARROW
 10
-3.960299999999999
 20
1.9135
 30
0.0
 41
0.125
 42
0.125
 50
90.00000000000007
  0
INSERT
  5
10C
330
1F
100
AcDbEntity
  8
LAYOUT
  6
Continuous
 62
     7
100
AcDbBlockReference
  2
LONGARROW
 10
-3.960299999999998
 20
1.285500000000001
 30
0.0
 41
0.125
 42
0.125
 50
270.0
  0
TEXT
  5
10D
330
1F
100
AcDbEntity
  8
LAYOUT
  6
Continuous
 62
     7
100
AcDbText
 10
-6.814461927584642
 20
2.413133519550492
 30
0.0
 40
0.125
  1
0.939"
  7
ARIAL
 72
     1
 11
-6.590499994999999
 21
2.475633519550492
 31
0.0
100
AcDbText
 73
     2
  0
LINE
  5
10E
330
1F
100
AcDbEntity
  8
LAYOUT
  6
Continuous
 62
     7
100
AcDbLine
 10
-7.099999999999999
 20
1.725
 30
0.0
 11
-7.099999999999999
 21
2.628411297328269
 31
0.0
  0
LINE
  5
10F
330
1F
100
AcDbEntity
  8
LAYOUT
  6
Continuous
 62
     7
100
AcDbLine
 10
-6.161499999999999
 20
1.724500000000001
 30
0.0
 11
-6.161499999999999
 21
2.628411297328269
 31
0.0
  0
LINE
  5
110
330
1F
100
AcDbEntity
  8
LAYOUT
  6
Continuous
 62
     7
100
AcDbLine
 10
-7.099999999999999
 20
2.378411297328269
 30
0.0
 11
-6.161499999999999
 21
2.378411297328269
 31
0.0
  0
INSERT
  5
111
330
1F
100
AcDbEntity
  8
LAYOUT
  6
Continuous
 62
     7
100
AcDbBlockReference
  2
LONGARROW
 10
-7.099999999999999
 20
2.378411297328269
 30
0.0
 41
0.125
 42
0.125
  0
INSERT
  5
112
330
1F
100
AcDbEntity
  8
LAYOUT
  6
Continuous
 62
     7
100
AcDbBlockReference
  2
LONGARROW
 10
-6.161499999999999
 20
2.378411297328269
 30
0.0
 41
0.125
 42
0.125
 50
180.0
  0
TEXT
  5
113
330
1F
100
AcDbEntity
  8
LAYOUT
  6
Continuous
 62
     7
100
AcDbText
 10
-6.724184149806863
 20
0.7946515532728942
 30
0.0
 40
0.125
  1
0.706"
  7
ARIAL
 72
     1
 11
-6.50022221722222
 21
0.8571515532728941
 31
0.0
100
AcDbText
 73
     2
  0
LINE
  5
114
330
1F
100
AcDbEntity
  8
LAYOUT
  6
Continuous
 62
     7
100
AcDbLine
 10
-6.161499999999999
 20
1.474500000000001
 30
0.0
 11
-6.161499999999999
 21
0.5937819693094637
 31
0.0
  0
LINE
  5
115
330
1F
100
AcDbEntity
  8
LAYOUT
  6
Continuous
 62
     7
100
AcDbLine
 10
-6.867499999999997
 20
1.293909846547316
 30
0.0
 11
-6.867499999999997
 21
0.5937819693094637
 31
0.0
  0
LINE
  5
116
330
1F
100
AcDbEntity
  8
LAYOUT
  6
Continuous
 62
     7
100
AcDbLine
 10
-6.161499999999999
 20
0.8437819693094636
 30
0.0
 11
-5.786499999999999
 21
0.8437819693094636
 31
0.0
  0
LINE
  5
117
330
1F
100
AcDbEntity
  8
LAYOUT
  6
Continuous
 62
     7
100
AcDbLine
 10
-6.867499999999997
 20
0.8437819693094636
 30
0.0
 11
-7.242499999999997
 21
0.8437819693094636
 31
0.0
  0
INSERT
  5
118
330
1F
100
AcDbEntity
  8
LAYOUT
  6
Continuous
 62
     7
100
AcDbBlockReference
  2
LONGARROW
 10
-6.161499999999999
 20
0.8437819693094636
 30
0.0
 41
0.125
 42
0.125
  0
INSERT
  5
119
330
1F
100
AcDbEntity
  8
LAYOUT
  6
Continuous
 62
     7
100
AcDbBlockReference
  2
LONGARROW
 10
-6.867499999999997
 20
0.8437819693094636
 30
0.0
 41
0.125
 42
0.125
 50
180.0
  0
TEXT
  5
11A
330
1F
100
AcDbEntity
  8
LAYOUT
  6
Continuous
 62
     7
100
AcDbText
 10
-5.758461932584641
 20
0.2230000000000016
 30
0.0
 40
0.125
  1
2.666"
  7
ARIAL
 72
     1
 11
-5.534499999999997
 21
0.2855000000000016
 31
0.0
100
AcDbText
 73
     2
  0
LINE
  5
11B
330
1F
100
AcDbEntity
  8
LAYOUT
  6
Continuous
 62
     7
100
AcDbLine
 10
-4.201499999999997
 20
1.160500000000001
 30
0.0
 11
-4.201499999999997
 21
0.0355000000000017
 31
0.0
  0
LINE
  5
11C
330
1F
100
AcDbEntity
  8
LAYOUT
  6
Continuous
 62
     7
100
AcDbLine
 10
-6.867499999999997
 20
1.160500000000001
 30
0.0
 11
-6.867499999999997
 21
0.0355000000000017
 31
0.0
  0
LINE
  5
11D
330
1F
100
AcDbEntity
  8
LAYOUT
  6
Continuous
 62
     7
100
AcDbLine
 10
-4.201499999999997
 20
0.2855000000000016
 30
0.0
 11
-5.198557087153194
 21
0.2855000000000017
 31
0.0
  0
LINE
  5
11E
330
1F
100
AcDbEntity
  8
LAYOUT
  6
Continuous
 62
     7
100
AcDbLine
 10
-6.867499999999997
 20
0.2855000000000016
 30
0.0
 11
-5.870442912846801
 21
0.2855000000000016
 31
0.0
  0
INSERT
  5
11F
330
1F
100
AcDbEntity
  8
LAYOUT
  6
Continuous
 62
     7
100
AcDbBlockReference
  2
LONGARROW
 10
-4.201499999999997
 20
0.2855000000000016
 30
0.0
 41
0.125
 42
0.125
 50
180.0
  0
INSERT
  5
120
330
1F
100
AcDbEntity
  8
LAYOUT
  6
Continuous
 62
     7
100
AcDbBlockReference
  2
LONGARROW
 10
-6.867499999999997
 20
0.2855000000000016
 30
0.0
 41
0.125
 42
0.125
  0
TEXT
  5
121
330
1F
100
AcDbEntity
  8
LAYOUT
  6
Continuous
 62
     7
100
AcDbText
 10
-5.758461932584641
 20
0.4480879092849821
 30
0.0
 40
0.125
  1
2.301"
  7
ARIAL
 72
     1
 11
-5.534499999999997
 21
0.5105879092849821
 31
0.0
100
AcDbText
 73
     2
  0
LINE
  5
122
330
1F
100
AcDbEntity
  8
LAYOUT
  6
Continuous
 62
     7
100
AcDbLine
 10
-4.383999999999998
 20
0.9160000000000003
 30
0.0
 11
-4.383999999999998
 21
0.2605879092849821
 31
0.0
  0
LINE
  5
123
330
1F
100
AcDbEntity
  8
LAYOUT
  6
Continuous
 62
     7
100
AcDbLine
 10
-6.684999999999997
 20
0.9160000000000012
 30
0.0
 11
-6.684999999999997
 21
0.2605879092849821
 31
0.0
  0
LINE
  5
124
330
1F
100
AcDbEntity
  8
LAYOUT
  6
Continuous
 62
     7
100
AcDbLine
 10
-4.383999999999998
 20
0.5105879092849821
 30
0.0
 11
-5.198557087153194
 21
0.5105879092849822
 31
0.0
  0
LINE
  5
125
330
1F
100
AcDbEntity
  8
LAYOUT
  6
Continuous
 62
     7
100
AcDbLine
 10
-6.684999999999997
 20
0.5105879092849821
 30
0.0
 11
-5.870442912846801
 21
0.510587909284982
 31
0.0
  0
INSERT
  5
126
330
1F
100
AcDbEntity
  8
LAYOUT
  6
Continuous
 62
     7
100
AcDbBlockReference
  2
LONGARROW
 10
-4.383999999999998
 20
0.5105879092849821
 30
0.0
 41
0.125
 42
0.125
 50
180.0
  0
INSERT
  5
127
330
1F
100
AcDbEntity
  8
LAYOUT
  6
Continuous
 62
     7
100
AcDbBlockReference
  2
LONGARROW
 10
-6.684999999999997
 20
0.5105879092849821
 30
0.0
 41
0.125
 42
0.125
  0
LINE
  5
129
102
{ACAD_REACTORS
330
128
102
}
330
1F
100
AcDbEntity
  8
CUT
  6
Continuous
 62
     7
100
AcDbLine
 10
-6.678732532992017
 20
5.367202305927952
 30
0.00000001
 11
-6.678732532992017
 21
4.202202305927952
 31
0.00000001
  0
LINE
  5
12A
102
{ACAD_REACTORS
330
128
102
}
330
1F
100
AcDbEntity
  8
CUT
  6
Continuous
 62
     7
100
AcDbLine
 10
-6.678732532992017
 20
4.202202305927952
 30
0.00000001
 11
-4.090732532992017
 21
4.202202305927952
 31
0.00000001
  0
LINE
  5
12B
102
{ACAD_REACTORS
330
128
102
}
330
1F
100
AcDbEntity
  8
CUT
  6
Continuous
 62
     7
100
AcDbLine
 10
-4.090732532992017
 20
4.202202305927952
 30
0.00000001
 11
-4.090732532992017
 21
5.367202305927952
 31
0.00000001
  0
LINE
  5
12C
102
{ACAD_REACTORS
330
128
102
}
330
1F
100
AcDbEntity
  8
CUT
  6
Continuous
 62
     7
100
AcDbLine
 10
-4.090732532992017
 20
5.36720230592795
 30
0.00000001
 11
-6.678732532992017
 21
5.367202305927952
 31
0.00000001
  0
LINE
  5
12E
102
{ACAD_REACTORS
330
12D
102
}
330
1F
100
AcDbEntity
  8
LAYOUT
  6
Continuous
 62
     7
100
AcDbLine
 10
-6.678732532992016
 20
4.202202305927951
 30
0.00000001
 11
-4.090732532992017
 21
5.367202305927952
 31
0.00000001
  0
LINE
  5
12F
102
{ACAD_REACTORS
330
12D
102
}
330
1F
100
AcDbEntity
  8
LAYOUT
  6
Continuous
 62
     7
100
AcDbLine
 10
-6.678732532992016
 20
5.367202305927952
 30
0.00000001
 11
-4.090732532992017
 21
4.202202305927951
 31
0.00000001
  0
CIRCLE
  5
130
330
1F
100
AcDbEntity
  8
HOLES
  6
Continuous
 62
     7
100
AcDbCircle
 10
-6.860732532992017
 20
5.13370230592795
 30
0.00000001
 40
0.045
  0
CIRCLE
  5
131
330
1F
100
AcDbEntity
  8
HOLES
  6
Continuous
 62
     7
100
AcDbCircle
 10
-6.860732532992018
 20
4.435702305927952
 30
0.00000001
 40
0.045
  0
CIRCLE
  5
132
330
1F
100
AcDbEntity
  8
HOLES
  6
Continuous
 62
     7
100
AcDbCircle
 10
-3.914232532992017
 20
4.435702305927952
 30
0.00000001
 40
0.045
  0
CIRCLE
  5
133
330
1F
100
AcDbEntity
  8
HOLES
  6
Continuous
 62
     7
100
AcDbCircle
 10
-3.908501209822065
 20
5.133617410219946
 30
0.00000001
 40
0.045
  0
TEXT
  5
134
330
1F
100
AcDbEntity
  8
LAYOUT
  6
Continuous
 62
     7
100
AcDbText
 10
-5.755232532992017
 20
4.284702305927952
 30
0.0
 40
0.125
  1
HS805
  7
ARIAL
100
AcDbText
  0
TEXT
  5
135
330
1F
100
AcDbEntity
  8
LAYOUT
  6
Continuous
 62
     7
100
AcDbText
 10
-5.60869446557666
 20
3.485702305927952
 30
0.0
 40
0.125
  1
2.588"
  7
ARIAL
 72
     1
 11
-5.384732532992017
 21
3.548202305927952
 31
0.0
100
AcDbText
 73
     2
  0
LINE
  5
136
330
1F
100
AcDbEntity
  8
LAYOUT
  6
Continuous
 62
     7
100
AcDbLine
 10
-4.090732532992017
 20
4.077202305927951
 30
0.00000001
 11
-4.090732532992017
 21
3.298202305927952
 31
0.0
  0
LINE
  5
137
330
1F
100
AcDbEntity
  8
LAYOUT
  6
Continuous
 62
     7
100
AcDbLine
 10
-6.678732532992016
 20
4.077202305927951
 30
0.00000001
 11
-6.678732532992016
 21
3.298202305927952
 31
0.0
  0
LINE
  5
138
330
1F
100
AcDbEntity
  8
LAYOUT
  6
Continuous
 62
     7
100
AcDbLine
 10
-4.090732532992017
 20
3.548202305927952
 30
0.0
 11
-5.048789620145213
 21
3.548202305927952
 31
0.0
  0
LINE
  5
139
330
1F
100
AcDbEntity
  8
LAYOUT
  6
Continuous
 62
     7
100
AcDbLine
 10
-6.678732532992016
 20
3.548202305927952
 30
0.0
 11
-5.72067544583882
 21
3.548202305927952
 31
0.0
  0
INSERT
  5
13A
330
1F
100
AcDbEntity
  8
LAYOUT
  6
Continuous
 62
     7
100
AcDbBlockReference
  2
LONGARROW
 10
-4.090732532992017
 20
3.548202305927952
 30
0.0
 41
0.125
 42
0.125
 50
180.0
  0
INSERT
  5
13B
330
1F
100
AcDbEntity
  8
LAYOUT
  6
Continuous
 62
     7
100
AcDbBlockReference
  2
LONGARROW
 10
-6.678732532992016
 20
3.548202305927952
 30
0.0
 41
0.125
 42
0.125
  0
CIRCLE
  5
13C
330
1F
100
AcDbEntity
  8
LAYOUT
  6
DOT
 62
     7
100
AcDbCircle
 10
-6.102732532992018
 20
4.784702305927952
 30
0.00000001
 40
0.1419999999999999
  0
TEXT
  5
13D
330
1F
100
AcDbEntity
  8
LAYOUT
  6
Continuous
 62
     7
100
AcDbText
 10
-3.16629446557666
 20
4.722202305927951
 30
0.0
 40
0.125
  1
1.165"
  7
ARIAL
 72
     1
 11
-2.942332532992017
 21
4.784702305927951
 31
0.0
100
AcDbText
 73
     2
  0
LINE
  5
13E
330
1F
100
AcDbEntity
  8
LAYOUT
  6
Continuous
 62
     7
100
AcDbLine
 10
-3.965732532992016
 20
5.367202305927952
 30
0.00000001
 11
-2.692332532992018
 21
5.367202305927952
 31
0.0
  0
LINE
  5
13F
330
1F
100
AcDbEntity
  8
LAYOUT
  6
Continuous
 62
     7
100
AcDbLine
 10
-3.965732532992016
 20
4.202202305927951
 30
0.00000001
 11
-2.692332532992016
 21
4.202202305927951
 31
0.0
  0
LINE
  5
140
330
1F
100
AcDbEntity
  8
LAYOUT
  6
Continuous
 62
     7
100
AcDbLine
 10
-2.942332532992018
 20
5.367202305927952
 30
0.0
 11
-2.942332532992017
 21
4.878452305927951
 31
0.0
  0
LINE
  5
141
330
1F
100
AcDbEntity
  8
LAYOUT
  6
Continuous
 62
     7
100
AcDbLine
 10
-2.942332532992016
 20
4.202202305927951
 30
0.0
 11
-2.942332532992017
 21
4.690952305927951
 31
0.0
  0
INSERT
  5
142
330
1F
100
AcDbEntity
  8
LAYOUT
  6
Continuous
 62
     7
100
AcDbBlockReference
  2
LONGARROW
 10
-2.942332532992018
 20
5.367202305927952
 30
0.0
 41
0.125
 42
0.125
 50
270.0
  0
INSERT
  5
143
330
1F
100
AcDbEntity
  8
LAYOUT
  6
Continuous
 62
     7
100
AcDbBlockReference
  2
LONGARROW
 10
-2.942332532992016
 20
4.202202305927951
 30
0.0
 41
0.125
 42
0.125
 50
90.00000000000005
  0
TEXT
  5
144
330
1F
100
AcDbEntity
  8
LAYOUT
  6
Continuous
 62
     7
100
AcDbText
 10
-3.67919446557666
 20
4.722202305927952
 30
0.0
 40
0.125
  1
0.698"
  7
ARIAL
 72
     1
 11
-3.455232532992017
 21
4.784702305927952
 31
0.0
100
AcDbText
 73
     2
  0
LINE
  5
145
330
1F
100
AcDbEntity
  8
LAYOUT
  6
Continuous
 62
     7
100
AcDbLine
 10
-3.789232532992017
 20
5.13370230592795
 30
0.00000001
 11
-3.217032532992018
 21
5.13370230592795
 31
0.0
  0
LINE
  5
146
330
1F
100
AcDbEntity
  8
LAYOUT
  6
Continuous
 62
     7
100
AcDbLine
 10
-3.789232532992017
 20
4.435702305927952
 30
0.00000001
 11
-3.217032532992017
 21
4.435702305927952
 31
0.0
  0
LINE
  5
147
330
1F
100
AcDbEntity
  8
LAYOUT
  6
Continuous
 62
     7
100
AcDbLine
 10
-3.467032532992018
 20
5.13370230592795
 30
0.0
 11
-3.467032532992018
 21
5.50870230592795
 31
0.0
  0
LINE
  5
148
330
1F
100
AcDbEntity
  8
LAYOUT
  6
Continuous
 62
     7
100
AcDbLine
 10
-3.467032532992017
 20
4.435702305927952
 30
0.0
 11
-3.467032532992016
 21
4.060702305927952
 31
0.0
  0
INSERT
  5
149
330
1F
100
AcDbEntity
  8
LAYOUT
  6
Continuous
 62
     7
100
AcDbBlockReference
  2
LONGARROW
 10
-3.467032532992018
 20
5.13370230592795
 30
0.0
 41
0.125
 42
0.125
 50
90.00000000000007
  0
INSERT
  5
14A
330
1F
100
AcDbEntity
  8
LAYOUT
  6
Continuous
 62
     7
100
AcDbBlockReference
  2
LONGARROW
 10
-3.467032532992017
 20
4.435702305927952
 30
0.0
 41
0.125
 42
0.125
 50
270.0
  0
LINE
  5
14C
102
{ACAD_REACTORS
330
14B
102
}
330
1F
100
AcDbEntity
  8
LAYOUT
  6
Continuous
 62
     7
100
AcDbLine
 10
-6.860732532992017
 20
5.13370230592795
 30
0.00000001
 11
-3.908732532992017
 21
4.435702305927952
 31
0.00000001
  0
LINE
  5
14D
102
{ACAD_REACTORS
330
14B
102
}
330
1F
100
AcDbEntity
  8
LAYOUT
  6
Continuous
 62
     7
100
AcDbLine
 10
-6.860732532992018
 20
4.435702305927952
 30
0.00000001
 11
-3.908501209822065
 21
5.133617410219946
 31
0.00000001
  0
LINE
  5
14E
102
{ACAD_REACTORS
330
14B
102
}
330
1F
100
AcDbEntity
  8
LAYOUT
  6
Continuous
 62
     7
100
AcDbLine
 10
-6.860732532992018
 20
5.133702305927952
 30
0.00000001
 11
-6.860732532992018
 21
4.435702305927952
 31
0.00000001
  0
LINE
  5
14F
102
{ACAD_REACTORS
330
14B
102
}
330
1F
100
AcDbEntity
  8
LAYOUT
  6
Continuous
 62
     7
100
AcDbLine
 10
-6.860732532992018
 20
4.435702305927952
 30
0.00000001
 11
-3.908732532992018
 21
4.435702305927952
 31
0.00000001
  0
LINE
  5
150
102
{ACAD_REACTORS
330
14B
102
}
330
1F
100
AcDbEntity
  8
LAYOUT
  6
Continuous
 62
     7
100
AcDbLine
 10
-3.908501209822065
 20
5.133617410219946
 30
0.00000001
 11
-6.860732532992018
 21
5.13370230592795
 31
0.00000001
  0
LINE
  5
151
102
{ACAD_REACTORS
330
14B
102
}
330
1F
100
AcDbEntity
  8
LAYOUT
  6
Continuous
 62
     7
100
AcDbLine
 10
-3.908732532992018
 20
4.435702305927952
 30
0.00000001
 11
-3.908501209822065
 21
5.133617410219946
 31
0.00000001
  0
LINE
  5
152
330
1F
100
AcDbEntity
  8
LAYOUT
  6
CENTER
 62
     7
100
AcDbLine
 10
-5.915232532992018
 20
4.784702305927952
 30
0.0
 11
-5.710732532992018
 21
4.784702305927952
 31
0.0
  0
LINE
  5
153
330
1F
100
AcDbEntity
  8
LAYOUT
  6
CENTER
 62
     7
100
AcDbLine
 10
-6.290232532992018
 20
4.784702305927952
 30
0.0
 11
-6.494732532992017
 21
4.784702305927952
 31
0.0
  0
LINE
  5
154
330
1F
100
AcDbEntity
  8
LAYOUT
  6
CENTER
 62
     7
100
AcDbLine
 10
-6.102732532992018
 20
4.972202305927952
 30
0.0
 11
-6.102732532992018
 21
5.176702305927951
 31
0.0
  0
LINE
  5
155
330
1F
100
AcDbEntity
  8
LAYOUT
  6
CENTER
 62
     7
100
AcDbLine
 10
-6.102732532992018
 20
4.597202305927952
 30
0.0
 11
-6.102732532992018
 21
4.392702305927953
 31
0.0
  0
INSERT
  5
156
330
1F
100
AcDbEntity
  8
LAYOUT
  6
CENTER
 62
     7
100
AcDbBlockReference
  2
CROSS
 10
-6.102732532992018
 20
4.784702305927952
 30
0.00000001
 41
0.125
 42
0.125
  0
TEXT
  5
157
330
1F
100
AcDbEntity
  8
LAYOUT
  6
Continuous
 62
     7
100
AcDbText
 10
-6.697120470658351
 20
3.882319460617148
 30
0.0
 40
0.125
  1
0.758"
  7
ARIAL
 72
     1
 11
-6.473158538073708
 21
3.944819460617148
 31
0.0
100
AcDbText
 73
     2
  0
LINE
  5
158
330
1F
100
AcDbEntity
  8
LAYOUT
  6
Continuous
 62
     7
100
AcDbLine
 10
-6.102732532992018
 20
4.659702305927952
 30
0.00000001
 11
-6.102732532992018
 21
3.534702305927952
 31
0.0
  0
LINE
  5
159
330
1F
100
AcDbEntity
  8
LAYOUT
  6
Continuous
 62
     7
100
AcDbLine
 10
-6.860732532992018
 20
4.659702305927952
 30
0.00000001
 11
-6.860732532992018
 21
3.534702305927952
 31
0.0
  0
LINE
  5
15A
330
1F
100
AcDbEntity
  8
LAYOUT
  6
Continuous
 62
     7
100
AcDbLine
 10
-6.102732532992018
 20
3.784702305927952
 30
0.0
 11
-6.860732532992018
 21
3.784702305927952
 31
0.0
  0
INSERT
  5
15B
330
1F
100
AcDbEntity
  8
LAYOUT
  6
Continuous
 62
     7
100
AcDbBlockReference
  2
LONGARROW
 10
-6.102732532992018
 20
3.784702305927952
 30
0.0
 41
0.125
 42
0.125
 50
180.0
  0
INSERT
  5
15C
330
1F
100
AcDbEntity
  8
LAYOUT
  6
Continuous
 62
     7
100
AcDbBlockReference
  2
LONGARROW
 10
-6.860732532992018
 20
3.784702305927952
 30
0.0
 41
0.125
 42
0.125
  0
TEXT
  5
15D
330
1F
100
AcDbEntity
  8
LAYOUT
  6
Continuous
 62
     7
100
AcDbText
 10
-5.608694465576661
 20
3.179194460617151
 30
0.0
 40
0.125
  1
2.952"
  7
ARIAL
 72
     1
 11
-5.384732532992018
 21
3.241694460617151
 31
0.0
100
AcDbText
 73
     2
  0
LINE
  5
15E
330
1F
100
AcDbEntity
  8
LAYOUT
  6
Continuous
 62
     7
100
AcDbLine
 10
-3.908732532992017
 20
4.310702305927952
 30
0.00000001
 11
-3.908732532992017
 21
2.991694460617151
 31
0.0
  0
LINE
  5
15F
330
1F
100
AcDbEntity
  8
LAYOUT
  6
Continuous
 62
     7
100
AcDbLine
 10
-6.860732532992018
 20
4.310702305927952
 30
0.00000001
 11
-6.860732532992018
 21
2.991694460617151
 31
0.0
  0
LINE
  5
160
330
1F
100
AcDbEntity
  8
LAYOUT
  6
Continuous
 62
     7
100
AcDbLine
 10
-3.908732532992017
 20
3.241694460617151
 30
0.0
 11
-5.048789620145214
 21
3.241694460617151
 31
0.0
  0
LINE
  5
161
330
1F
100
AcDbEntity
  8
LAYOUT
  6
Continuous
 62
     7
100
AcDbLine
 10
-6.860732532992018
 20
3.241694460617151
 30
0.0
 11
-5.720675445838821
 21
3.241694460617151
 31
0.0
  0
INSERT
  5
162
330
1F
100
AcDbEntity
  8
LAYOUT
  6
Continuous
 62
     7
100
AcDbBlockReference
  2
LONGARROW
 10
-3.908732532992017
 20
3.241694460617151
 30
0.0
 41
0.125
 42
0.125
 50
180.0
  0
INSERT
  5
163
330
1F
100
AcDbEntity
  8
LAYOUT
  6
Continuous
 62
     7
100
AcDbBlockReference
  2
LONGARROW
 10
-6.860732532992018
 20
3.241694460617151
 30
0.0
 41
0.125
 42
0.125
  0
ENDSEC
  0
SECTION
  2
OBJECTS
  0
DICTIONARY
  5
C
330
0
100
AcDbDictionary
281
     1
  3
ACAD_GROUP
350
D
  3
ACAD_LAYOUT
350
1A
  3
ACAD_MLINESTYLE
350
17
  3
ACAD_PLOTSETTINGS
350
19
  3
ACAD_PLOTSTYLENAME
350
E
  3
AcDbVariableDictionary
350
164
  0
DICTIONARY
  5
D
102
{ACAD_REACTORS
330
C
102
}
330
C
100
AcDbDictionary
281
     1
  3
*A1
350
128
  3
*A2
350
12D
  3
*A3
350
14B
  0
DICTIONARY
  5
1A
102
{ACAD_REACTORS
330
C
102
}
330
C
100
AcDbDictionary
281
     1
  3
Layout1
350
1E
  3
Layout2
350
26
  3
Model
350
22
  0
DICTIONARY
  5
17
102
{ACAD_REACTORS
330
C
102
}
330
C
100
AcDbDictionary
281
     1
  3
Standard
350
18
  0
DICTIONARY
  5
19
102
{ACAD_REACTORS
330
C
102
}
330
C
100
AcDbDictionary
281
     1
  0
ACDBDICTIONARYWDFLT
  5
E
102
{ACAD_REACTORS
330
C
102
}
330
C
100
AcDbDictionary
281
     1
  3
Normal
350
F
100
AcDbDictionaryWithDefault
340
F
  0
DICTIONARY
  5
164
102
{ACAD_REACTORS
330
C
102
}
330
C
100
AcDbDictionary
281
     1
  3
DIMASSOC
350
166
  3
HIDETEXT
350
165
  0
GROUP
  5
128
102
{ACAD_REACTORS
330
D
102
}
330
D
100
AcDbGroup
300

 70
     0
 71
     1
340
129
340
12A
340
12B
340
12C
  0
GROUP
  5
12D
102
{ACAD_REACTORS
330
D
102
}
330
D
100
AcDbGroup
300

 70
     0
 71
     1
340
12E
340
12F
  0
GROUP
  5
14B
102
{ACAD_REACTORS
330
D
102
}
330
D
100
AcDbGroup
300

 70
     0
 71
     1
340
14C
340
14D
340
14E
340
14F
340
150
340
151
  0
LAYOUT
  5
1E
102
{ACAD_REACTORS
330
1A
102
}
330
1A
100
AcDbPlotSettings
  1

  2

  4

  6

 40
0.0
 41
0.0
 42
0.0
 43
0.0
 44
0.0
 45
0.0
 46
0.0
 47
0.0
 48
0.0
 49
0.0
140
0.0
141
0.0
142
1.0
143
1.0
 70
   688
 72
     0
 73
     0
 74
     5
  7

 75
    16
147
1.0
148
0.0
149
0.0
100
AcDbLayout
  1
Layout1
 70
     1
 71
     1
 10
0.0
 20
0.0
 11
12.0
 21
9.0
 12
0.0
 22
0.0
 32
0.0
 14
1.000000000000000E+20
 24
1.000000000000000E+20
 34
1.000000000000000E+20
 15
-1.000000000000000E+20
 25
-1.000000000000000E+20
 35
-1.000000000000000E+20
146
0.0
 13
0.0
 23
0.0
 33
0.0
 16
1.0
 26
0.0
 36
0.0
 17
0.0
 27
1.0
 37
0.0
 76
     0
330
1B
  0
LAYOUT
  5
26
102
{ACAD_REACTORS
330
1A
102
}
330
1A
100
AcDbPlotSettings
  1

  2

  4

  6

 40
0.0
 41
0.0
 42
0.0
 43
0.0
 44
0.0
 45
0.0
 46
0.0
 47
0.0
 48
0.0
 49
0.0
140
0.0
141
0.0
142
1.0
143
1.0
 70
   688
 72
     0
 73
     0
 74
     5
  7

 75
    16
147
1.0
148
0.0
149
0.0
100
AcDbLayout
  1
Layout2
 70
     1
 71
     2
 10
0.0
 20
0.0
 11
12.0
 21
9.0
 12
0.0
 22
0.0
 32
0.0
 14
0.0
 24
0.0
 34
0.0
 15
0.0
 25
0.0
 35
0.0
146
0.0
 13
0.0
 23
0.0
 33
0.0
 16
1.0
 26
0.0
 36
0.0
 17
0.0
 27
1.0
 37
0.0
 76
     0
330
23
  0
LAYOUT
  5
22
102
{ACAD_REACTORS
330
1A
102
}
330
1A
100
AcDbPlotSettings
  1

  2

  4

  6

 40
0.0
 41
0.0
 42
0.0
 43
0.0
 44
0.0
 45
0.0
 46
0.0
 47
0.0
 48
0.0
 49
0.0
140
0.0
141
0.0
142
1.0
143
1.0
 70
  1712
 72
     0
 73
     0
 74
     0
  7

 75
     0
147
1.0
148
0.0
149
0.0
100
AcDbLayout
  1
Model
 70
     1
 71
     0
 10
0.0
 20
0.0
 11
12.0
 21
9.0
 12
0.0
 22
0.0
 32
0.0
 14
0.0
 24
0.0
 34
0.0
 15
0.0
 25
0.0
 35
0.0
146
0.0
 13
0.0
 23
0.0
 33
0.0
 16
1.0
 26
0.0
 36
0.0
 17
0.0
 27
1.0
 37
0.0
 76
     0
330
1F
  0
MLINESTYLE
  5
18
102
{ACAD_REACTORS
330
17
102
}
330
17
100
AcDbMlineStyle
  2
STANDARD
 70
     0
  3

 62
   256
 51
90.0
 52
90.0
 71
     2
 49
0.5
 62
   256
  6
BYLAYER
 49
-0.5
 62
   256
  6
BYLAYER
  0
ACDBPLACEHOLDER
  5
F
102
{ACAD_REACTORS
330
E
102
}
330
E
  0
DICTIONARYVAR
  5
166
102
{ACAD_REACTORS
330
164
102
}
330
164
100
DictionaryVariables
280
     0
  1
2
  0
DICTIONARYVAR
  5
165
102
{ACAD_REACTORS
330
164
102
}
330
164
100
DictionaryVariables
280
     0
  1
1
  0
ENDSEC
  0
EOF
